  0
SECTION
  2
HEADER
  9
$ACADVER
  1
AC1009
  9
$INSBASE
 10
0
 20
0
 30
0
  9
$EXTMIN
 10
0
 20
0
  9
$EXTMAX
 10
1485
 20
1050
  9
$LIMMIN
 10
0
 20
0
  9
$LIMMAX
 10
1485
 20
1050
  9
$LTSCALE
 40
5
  0
ENDSEC
  0
SECTION
  2
TABLES
  0
TABLE
  2
LTYPE
 70
     9
  0
LTYPE
  2
CONTINUOUS
 70
    64
  3
実線
 72
    65
 73
     0
 40
0.0
  0
LTYPE
  2
DASHED1
 70
    64
  3
--  --  --  --  --  --  --  --  
 72
    65
 73
     2
 40
2.5
 49
1.25
 49
-1.25
  0
LTYPE
  2
DASHED2
 70
    64
  3
----    ----    ----    ----    
 72
    65
 73
     2
 40
5.0
 49
2.5
 49
-2.5
  0
LTYPE
  2
DASHED3
 70
    64
  3
------  ------  ------  ------  
 72
    65
 73
     2
 40
5.0
 49
3.75
 49
-1.25
  0
LTYPE
  2
CENTER1
 70
    64
  3
----- - ----- - ----- - ----- - 
 72
    65
 73
     4
 40
10.0
 49
6.25
 49
-1.25
 49
1.25
 49
-1.25
  0
LTYPE
  2
CENTER2
 70
    64
  3
----------  --  ----------  --  
 72
    65
 73
     4
 40
20.0
 49
12.5
 49
-2.5
 49
2.5
 49
-2.5
  0
LTYPE
  2
PHANTOM1
 70
    64
  3
--- - - --- - - --- - - --- - - 
 72
    65
 73
     6
 40
10.0
 49
3.25
 49
-1.25
 49
1.25
 49
-1.25
 49
1.25
 49
-1.25
  0
LTYPE
  2
PHANTOM2
 70
    64
  3
--------  -  -  --------  -  -  
 72
    65
 73
     6
 40
20.0
 49
10.0
 49
-2.5
 49
1.25
 49
-2.5
 49
1.25
 49
-2.5
  0
LTYPE
  2
DOT
 70
    64
  3
-   -   -   -   -   -   -   -   
 72
    65
 73
     2
 40
2.5
 49
0.625
 49
-1.875
  0
LTYPE
  2
DUMMY
 70
    64
  3
ダミー
 72
    65
 73
     0
 40
0.0
  0
LTYPE
  2
RAND1
 70
    64
  3
ランダム線1
 72
    65
 73
     4
 40
10.0
 49
1.0
 49
-2.0
 49
3.0
 49
-4.0
  0
LTYPE
  2
RAND2
 70
    64
  3
ランダム線2
 72
    65
 73
     4
 40
14.0
 49
2.0
 49
-3.0
 49
4.0
 49
-5.0
  0
LTYPE
  2
RAND3
 70
    64
  3
ランダム線3
 72
    65
 73
     4
 40
18.0
 49
3.0
 49
-4.0
 49
5.0
 49
-6.0
  0
LTYPE
  2
RAND4
 70
    64
  3
ランダム線4
 72
    65
 73
     4
 40
22.0
 49
4.0
 49
-5.0
 49
6.0
 49
-7.0
  0
LTYPE
  2
RAND5
 70
    64
  3
ランダム線5
 72
    65
 73
     4
 40
26.0
 49
5.0
 49
-6.0
 49
7.0
 49
-8.0
  0
LTYPE
  2
LONG1
 70
    64
  3
----------  --  ----------  --  
 72
    65
 73
     4
 40
40.0
 49
32.5
 49
-2.5
 49
2.5
 49
-2.5
  0
LTYPE
  2
LONG2
 70
    64
  3
--------  -  -  --------  -  -  
 72
    65
 73
     6
 40
40.0
 49
30.0
 49
-2.5
 49
1.25
 49
-2.5
 49
1.25
 49
-2.5
  0
LTYPE
  2
LONG3
 70
    64
  3
+++++++++++++++..+++++++++++++++
 72
    65
 73
     2
 40
40.0
 49
37.5
 49
-2.5
  0
LTYPE
  2
LONG4
 70
    64
  3
+++++++++++++++..+++++++++++++++
 72
    65
 73
     2
 40
80.0
 49
75.0
 49
-5.0
  0
LTYPE
  2
LONG5
 70
    64
  3
----------  --  ----------  --  
 72
    65
 73
     4
 40
60.0
 49
37.5
 49
-7.5
 49
7.5
 49
-7.5
  0
LTYPE
  2
dashed
 70
   64
  3
-------   -------------   ------
 72
   65
 73
    2
 40
7.5
 49
6
 49
-1.5
  0
LTYPE
  2
dashed_spaced
 70
   64
  3
----        --------        ----
 72
   65
 73
    2
 40
12
 49
6
 49
-6
  0
LTYPE
  2
long_dashed_dotted
 70
   64
  3
------------- --- --------------
 72
   65
 73
    4
 40
15.25
 49
12
 49
-1.5
 49
0.25
 49
-1.5
  0
LTYPE
  2
long_dashed_double-dotted
 70
   64
  3
----------- --- --- ------------
 72
   65
 73
    6
 40
17
 49
12
 49
-1.5
 49
0.25
 49
-1.5
 49
0.25
 49
-1.5
  0
LTYPE
  2
long_dashed_triplicate-dotted
 70
   64
  3
--------- --- --- --- ----------
 72
   65
 73
    8
 40
18.75
 49
12
 49
-1.5
 49
0.25
 49
-1.5
 49
0.25
 49
-1.5
 49
0.25
 49
-1.5
  0
LTYPE
  2
dotted
 70
   64
  3
   -       -       -       -    
 72
   65
 73
    2
 40
1.75
 49
0.25
 49
-1.5
  0
LTYPE
  2
chain
 70
   64
  3
-------------- -- --------------
 72
   65
 73
    4
 40
18.5
 49
12
 49
-1.5
 49
3.5
 49
-1.5
  0
LTYPE
  2
chain_double_dash
 70
   64
  3
------------ -- -- -------------
 72
   65
 73
    6
 40
23.5
 49
12
 49
-1.5
 49
3.5
 49
-1.5
 49
3.5
 49
-1.5
  0
LTYPE
  2
dashed_dotted
 70
   64
  3
-----------     -     ----------
 72
   65
 73
    4
 40
9.25
 49
6
 49
-1.5
 49
0.25
 49
-1.5
  0
LTYPE
  2
double-dashed_dotted
 70
   64
  3
------   -----------   -   -----
 72
   65
 73
    6
 40
16.75
 49
6
 49
-1.5
 49
6
 49
-1.5
 49
0.25
 49
-1.5
  0
LTYPE
  2
dashed_double-dotted
 70
   64
  3
---------    -    -    ---------
 72
   65
 73
    6
 40
11
 49
6
 49
-1.5
 49
0.25
 49
-1.5
 49
0.25
 49
-1.5
  0
LTYPE
  2
double-dashed_double-dotted
 70
   64
  3
-----   ---------   -   -   ----
 72
   65
 73
    8
 40
18.5
 49
6
 49
-1.5
 49
6
 49
-1.5
 49
0.25
 49
-1.5
 49
0.25
 49
-1.5
  0
LTYPE
  2
dashed_triplicate-dotted
 70
   64
  3
-------    -    -    -    ------
 72
   65
 73
    8
 40
12.75
 49
6
 49
-1.5
 49
0.25
 49
-1.5
 49
0.25
 49
-1.5
 49
0.25
 49
-1.5
  0
LTYPE
  2
double-dashed_triplicate-dotted
 70
   64
  3
-----  ---------  -  -  -  -----
 72
   65
 73
   10
 40
20.25
 49
6
 49
-1.5
 49
6
 49
-1.5
 49
0.25
 49
-1.5
 49
0.25
 49
-1.5
 49
0.25
 49
-1.5
  0
LTYPE
  2
undefined
 70
   64
  3
--------------------------------
 72
   65
 73
    0
 40
0
  0
LTYPE
  2
_
 70
   64
  3
                                
 72
   65
 73
    0
 40
0
  0
LTYPE
  2
__18
 70
   64
  3
                                
 72
   65
 73
    0
 40
0
  0
LTYPE
  2
__19
 70
   64
  3
                                
 72
   65
 73
    0
 40
0
  0
LTYPE
  2
__20
 70
   64
  3
                                
 72
   65
 73
    0
 40
0
  0
LTYPE
  2
__21
 70
   64
  3
                                
 72
   65
 73
    0
 40
0
  0
LTYPE
  2
__22
 70
   64
  3
                                
 72
   65
 73
    0
 40
0
  0
LTYPE
  2
__23
 70
   64
  3
                                
 72
   65
 73
    0
 40
0
  0
LTYPE
  2
__24
 70
   64
  3
                                
 72
   65
 73
    0
 40
0
  0
LTYPE
  2
__25
 70
   64
  3
                                
 72
   65
 73
    0
 40
0
  0
LTYPE
  2
__26
 70
   64
  3
                                
 72
   65
 73
    0
 40
0
  0
LTYPE
  2
__27
 70
   64
  3
                                
 72
   65
 73
    0
 40
0
  0
LTYPE
  2
__28
 70
   64
  3
                                
 72
   65
 73
    0
 40
0
  0
LTYPE
  2
__29
 70
   64
  3
                                
 72
   65
 73
    0
 40
0
  0
LTYPE
  2
__30
 70
   64
  3
                                
 72
   65
 73
    0
 40
0
  0
LTYPE
  2
__31
 70
   64
  3
                                
 72
   65
 73
    0
 40
0
  0
LTYPE
  2
__32
 70
   64
  3
                                
 72
   65
 73
    0
 40
0
  0
ENDTAB
  0
TABLE
  2
STYLE
  5
3
100
AcDbSymbolTable
 70
     1
  0
STYLE
  5
10
100
AcDbSymbolTableRecord
100
AcDbTextStyleTableRecord
  2
STANDARD
 70
     0
 40
0.0
 41
1.0
 50
0.0
 71
     0
 42
0.2
  3
txt
  4
bigfont.shx
  0
STYLE
  5
26
100
AcDbSymbolTableRecord
100
AcDbTextStyleTableRecord
  2
TATEGAKI
 70
    68
 40
0.0
 41
1.0
 50
0.0
 71
     0
 42
1.0
  3
txt
  4
bigfont.shx
  0
ENDTAB
  0
TABLE
  2
LAYER
 70
    8
  0
LAYER
  2
_0-0_
 70
   64
 62
    7
  6
CONTINUOUS
  0
LAYER
  2
_0-1_
 70
   64
 62
    7
  6
CONTINUOUS
  0
LAYER
  2
_0-2_
 70
   64
 62
    7
  6
CONTINUOUS
  0
LAYER
  2
_0-4_
 70
   64
 62
    7
  6
CONTINUOUS
  0
LAYER
  2
_0-5_
 70
   64
 62
    7
  6
CONTINUOUS
  0
LAYER
  2
_0-6_
 70
   64
 62
    7
  6
CONTINUOUS
  0
LAYER
  2
_0-f_
 70
   64
 62
    7
  6
CONTINUOUS
  0
LAYER
  2
ADD_LINE
 70
   64
 62
    7
  6
CONTINUOUS
  0
ENDTAB
  0
ENDSEC
  0
SECTION
  2
BLOCKS
  0
BLOCK
  2
-000-BLK249
 70
   64
 10
0
 20
0
 30
0
  0
LINE
  8
_0-2_
  6
CONTINUOUS
 62
    2
 10
0
 20
-5.8500000000000796
 11
0
 21
-3.9750000000000796
  0
LINE
  8
_0-2_
  6
CONTINUOUS
 62
    2
 10
2.2500000000000142
 20
-5.8500000000000796
 11
2.2500000000000142
 21
-0.975000000000108
  0
LINE
  8
_0-2_
  6
CONTINUOUS
 62
    2
 10
0.3750000000000142
 20
-5.8500000000000796
 11
2.2500000000000142
 21
-5.8500000000000796
  0
LINE
  8
_0-2_
  6
CONTINUOUS
 62
    2
 10
0.3750000000000142
 20
1.6499999999999204
 11
0.3750000000000142
 21
-5.8500000000000796
  0
LINE
  8
_0-2_
  6
CONTINUOUS
 62
    2
 10
2.6249999999999929
 20
1.6499999999999204
 11
0.3750000000000142
 21
1.6499999999999204
  0
LINE
  8
_0-2_
  6
CONTINUOUS
 62
    2
 10
2.6249999999999929
 20
1.6499999999999204
 11
6.0000000000000142
 21
-3.2250000000000512
  0
LINE
  8
_0-2_
  6
CONTINUOUS
 62
    2
 10
6.0000000000000142
 20
1.6499999999999204
 11
6.0000000000000142
 21
-3.2250000000000512
  0
LINE
  8
_0-2_
  6
CONTINUOUS
 62
    2
 10
7.8750000000000142
 20
1.6499999999999204
 11
6.0000000000000142
 21
1.6499999999999204
  0
LINE
  8
_0-2_
  6
CONTINUOUS
 62
    2
 10
7.8750000000000142
 20
-5.8500000000000796
 11
5.625
 21
-5.8500000000000796
  0
LINE
  8
_0-2_
  6
CONTINUOUS
 62
    2
 10
-6.7500000000000071
 20
-1.3500000000000512
 11
-6.7500000000000071
 21
-0.6000000000000227
  0
LINE
  8
_0-2_
  6
CONTINUOUS
 62
    2
 10
-8.6250000000000071
 20
-1.3500000000000512
 11
-6.7500000000000071
 21
-1.3500000000000512
  0
LINE
  8
_0-2_
  6
CONTINUOUS
 62
    2
 10
-8.6250000000000071
 20
-0.975000000000108
 11
-8.6250000000000071
 21
-1.3500000000000512
  0
LINE
  8
_0-2_
  6
CONTINUOUS
 62
    2
 10
-11.625000000000014
 20
-0.2250000000000795
 11
-9.375
 21
-0.2250000000000795
  0
LINE
  8
_0-2_
  6
CONTINUOUS
 62
    2
 10
-12.375000000000007
 20
-3.2250000000000512
 11
-12.375000000000007
 21
-0.975000000000108
  0
LINE
  8
_0-2_
  6
CONTINUOUS
 62
    2
 10
-9.375
 20
-3.9750000000000796
 11
-11.625000000000014
 21
-3.9750000000000796
  0
LINE
  8
_0-2_
  6
CONTINUOUS
 62
    2
 10
-10.500000000000007
 20
-3.2250000000000512
 11
-8.6250000000000071
 21
-3.2250000000000512
  0
LINE
  8
_0-2_
  6
CONTINUOUS
 62
    2
 10
-10.500000000000007
 20
-1.7249999999999943
 11
-10.500000000000007
 21
-3.2250000000000512
  0
LINE
  8
_0-2_
  6
CONTINUOUS
 62
    2
 10
-6.7500000000000071
 20
-1.7249999999999943
 11
-10.500000000000007
 21
-1.7249999999999943
  0
LINE
  8
_0-2_
  6
CONTINUOUS
 62
    2
 10
-6.7500000000000071
 20
-3.5999999999999943
 11
-6.7500000000000071
 21
-1.7249999999999943
  0
LINE
  8
_0-2_
  6
CONTINUOUS
 62
    2
 10
-6.3749999999999929
 20
-5.8500000000000796
 11
0
 21
-5.8500000000000796
  0
ARC
  8
_0-2_
  6
CONTINUOUS
 62
    2
 10
-8.9999999999999858
 20
-3.5999999999999943
 40
2.25
 50
270
 51
0
  0
ARC
  8
_0-2_
  6
CONTINUOUS
 62
    2
 10
-11.999999999999993
 20
-3.5999999999999943
 40
2.25
 50
180
 51
270
  0
ARC
  8
_0-2_
  6
CONTINUOUS
 62
    2
 10
-9.375
 20
-0.975000000000108
 40
0.75
 50
0
 51
90
  0
ARC
  8
_0-2_
  6
CONTINUOUS
 62
    2
 10
-8.9999999999999858
 20
-0.6000000000000227
 40
2.25
 50
0
 51
90
  0
LINE
  8
_0-2_
  6
CONTINUOUS
 62
    2
 10
-6.3749999999999929
 20
1.6499999999999204
 11
-6.3749999999999929
 21
-5.8500000000000796
  0
LINE
  8
_0-2_
  6
CONTINUOUS
 62
    2
 10
0
 20
1.6499999999999204
 11
-6.3749999999999929
 21
1.6499999999999204
  0
LINE
  8
_0-2_
  6
CONTINUOUS
 62
    2
 10
7.8750000000000142
 20
1.6499999999999204
 11
7.8750000000000142
 21
-5.8500000000000796
  0
LINE
  8
_0-2_
  6
CONTINUOUS
 62
    2
 10
-19.875000000000007
 20
-1.7249999999999943
 11
-17.250000000000014
 21
1.6499999999999204
  0
LINE
  8
_0-2_
  6
CONTINUOUS
 62
    2
 10
-16.499999999999986
 20
-5.8500000000000796
 11
-14.624999999999986
 21
-5.8500000000000796
  0
LINE
  8
_0-2_
  6
CONTINUOUS
 62
    2
 10
-17.250000000000014
 20
1.6499999999999204
 11
-19.499999999999993
 21
1.6499999999999204
  0
LINE
  8
_0-2_
  6
CONTINUOUS
 62
    2
 10
-19.499999999999993
 20
1.6499999999999204
 11
-22.124999999999986
 21
-1.7249999999999943
  0
ARC
  8
_0-2_
  6
CONTINUOUS
 62
    2
 10
-11.625000000000014
 20
-3.2250000000000512
 40
0.75
 50
180
 51
270
  0
LINE
  8
_0-2_
  6
CONTINUOUS
 62
    2
 10
-14.624999999999986
 20
1.6499999999999204
 11
-16.499999999999986
 21
1.6499999999999204
  0
LINE
  8
_0-2_
  6
CONTINUOUS
 62
    2
 10
-19.125000000000014
 20
-5.8500000000000796
 11
-16.875
 21
-5.8500000000000796
  0
ARC
  8
_0-2_
  6
CONTINUOUS
 62
    2
 10
-11.999999999999993
 20
-0.6000000000000227
 40
2.25
 50
90
 51
180
  0
LINE
  8
_0-2_
  6
CONTINUOUS
 62
    2
 10
-16.875
 20
-5.8500000000000796
 11
-19.875000000000007
 21
-1.7249999999999943
  0
LINE
  8
_0-2_
  6
CONTINUOUS
 62
    2
 10
-14.624999999999986
 20
-5.8500000000000796
 11
-14.624999999999986
 21
1.6499999999999204
  0
LINE
  8
_0-2_
  6
CONTINUOUS
 62
    2
 10
-22.124999999999986
 20
1.6499999999999204
 11
-23.999999999999986
 21
1.6499999999999204
  0
LINE
  8
_0-2_
  6
CONTINUOUS
 62
    2
 10
-22.124999999999986
 20
-1.7249999999999943
 11
-19.125000000000014
 21
-5.8500000000000796
  0
LINE
  8
_0-2_
  6
CONTINUOUS
 62
    2
 10
-26.580000000000013
 20
-4.725000000000108
 11
-26.174999999999997
 21
-5.8500000000000796
  0
LINE
  8
_0-2_
  6
CONTINUOUS
 62
    2
 10
-4.4999999999999929
 20
-3.9750000000000796
 11
-4.4999999999999929
 21
-2.850000000000108
  0
LINE
  8
_0-2_
  6
CONTINUOUS
 62
    2
 10
0
 20
-3.9750000000000796
 11
-4.4999999999999929
 21
-3.9750000000000796
  0
LINE
  8
_0-2_
  6
CONTINUOUS
 62
    2
 10
-28.125
 20
-0.4333300000000406
 11
-27.227999999999994
 21
-2.9250000000000398
  0
LINE
  8
_0-2_
  6
CONTINUOUS
 62
    2
 10
-24.299999999999997
 20
-5.8500000000000796
 11
-26.174999999999997
 21
-5.8500000000000796
  0
LINE
  8
_0-2_
  6
CONTINUOUS
 62
    2
 10
-28.125
 20
-0.4333300000000406
 11
-29.022000000000006
 21
-2.9250000000000398
  0
ARC
  8
_0-2_
  6
CONTINUOUS
 62
    2
 10
-9.375
 20
-3.2250000000000512
 40
0.75
 50
270
 51
0
  0
LINE
  8
_0-2_
  6
CONTINUOUS
 62
    2
 10
-22.124999999999986
 20
-5.8500000000000796
 11
-22.124999999999986
 21
1.6499999999999204
  0
LINE
  8
_0-2_
  6
CONTINUOUS
 62
    2
 10
-31.950000000000003
 20
-5.8500000000000796
 11
-30.075000000000003
 21
-5.8500000000000796
  0
LINE
  8
_0-2_
  6
CONTINUOUS
 62
    2
 10
-29.250000000000007
 20
1.6499999999999204
 11
-26.999999999999993
 21
1.6499999999999204
  0
LINE
  8
_0-2_
  6
CONTINUOUS
 62
    2
 10
-26.999999999999993
 20
1.6499999999999204
 11
-24.299999999999997
 21
-5.8500000000000796
  0
LINE
  8
_0-2_
  6
CONTINUOUS
 62
    2
 10
-29.250000000000007
 20
1.6499999999999204
 11
-31.950000000000003
 21
-5.8500000000000796
  0
LINE
  8
_0-2_
  6
CONTINUOUS
 62
    2
 10
-16.499999999999986
 20
1.6499999999999204
 11
-16.499999999999986
 21
-5.8500000000000796
  0
LINE
  8
_0-2_
  6
CONTINUOUS
 62
    2
 10
2.2500000000000142
 20
-0.975000000000108
 11
5.625
 21
-5.8500000000000796
  0
LINE
  8
_0-2_
  6
CONTINUOUS
 62
    2
 10
-29.022000000000006
 20
-2.9250000000000398
 11
-27.227999999999994
 21
-2.9250000000000398
  0
LINE
  8
_0-2_
  6
CONTINUOUS
 62
    2
 10
-29.669999999999987
 20
-4.725000000000108
 11
-30.075000000000003
 21
-5.8500000000000796
  0
LINE
  8
_0-2_
  6
CONTINUOUS
 62
    2
 10
-26.580000000000013
 20
-4.725000000000108
 11
-29.669999999999987
 21
-4.725000000000108
  0
LINE
  8
_0-2_
  6
CONTINUOUS
 62
    2
 10
-8.9999999999999858
 20
1.6499999999999204
 11
-11.999999999999993
 21
1.6499999999999204
  0
LINE
  8
_0-2_
  6
CONTINUOUS
 62
    2
 10
-30
 20
0
 11
-30
 21
1.6499999999999204
  0
LINE
  8
_0-2_
  6
CONTINUOUS
 62
    2
 10
-32.624999999999993
 20
0
 11
-30
 21
0
  0
LINE
  8
_0-2_
  6
CONTINUOUS
 62
    2
 10
-32.624999999999993
 20
-5.8500000000000796
 11
-32.624999999999993
 21
0
  0
LINE
  8
_0-2_
  6
CONTINUOUS
 62
    2
 10
-34.499999999999993
 20
-5.8500000000000796
 11
-32.624999999999993
 21
-5.8500000000000796
  0
LINE
  8
_0-2_
  6
CONTINUOUS
 62
    2
 10
-34.499999999999993
 20
0
 11
-34.499999999999993
 21
-5.8500000000000796
  0
LINE
  8
_0-2_
  6
CONTINUOUS
 62
    2
 10
-37.124999999999986
 20
0
 11
-34.499999999999993
 21
0
  0
LINE
  8
_0-2_
  6
CONTINUOUS
 62
    2
 10
-37.124999999999986
 20
1.6499999999999204
 11
-37.124999999999986
 21
0
  0
LINE
  8
_0-2_
  6
CONTINUOUS
 62
    2
 10
-30
 20
1.6499999999999204
 11
-37.124999999999986
 21
1.6499999999999204
  0
LINE
  8
_0-2_
  6
CONTINUOUS
 62
    2
 10
-23.999999999999986
 20
-5.8500000000000796
 11
-22.124999999999986
 21
-5.8500000000000796
  0
LINE
  8
_0-2_
  6
CONTINUOUS
 62
    2
 10
-23.999999999999986
 20
1.6499999999999204
 11
-23.999999999999986
 21
-5.8500000000000796
  0
LINE
  8
_0-2_
  6
CONTINUOUS
 62
    2
 10
-14.250000000000007
 20
-0.6000000000000227
 11
-14.250000000000007
 21
-3.5999999999999943
  0
ARC
  8
_0-2_
  6
CONTINUOUS
 62
    2
 10
-11.625000000000014
 20
-0.975000000000108
 40
0.75
 50
90
 51
180
  0
LINE
  8
_0-2_
  6
CONTINUOUS
 62
    2
 10
-11.999999999999993
 20
-5.8500000000000796
 11
-8.9999999999999858
 21
-5.8500000000000796
  0
LINE
  8
_0-2_
  6
CONTINUOUS
 62
    2
 10
-4.4999999999999929
 20
-2.850000000000108
 11
-0.3750000000000142
 21
-2.850000000000108
  0
LINE
  8
_0-2_
  6
CONTINUOUS
 62
    2
 10
-0.3750000000000142
 20
-2.850000000000108
 11
-0.3750000000000142
 21
-1.1625000000000796
  0
LINE
  8
_0-2_
  6
CONTINUOUS
 62
    2
 10
-0.3750000000000142
 20
-1.1625000000000796
 11
-4.4999999999999929
 21
-1.1625000000000796
  0
LINE
  8
_0-2_
  6
CONTINUOUS
 62
    2
 10
-4.4999999999999929
 20
-1.1625000000000796
 11
-4.4999999999999929
 21
0
  0
LINE
  8
_0-2_
  6
CONTINUOUS
 62
    2
 10
-4.4999999999999929
 20
0
 11
0
 21
0
  0
LINE
  8
_0-2_
  6
CONTINUOUS
 62
    2
 10
0
 20
0
 11
0
 21
1.6499999999999204
  0
ENDBLK
  0
BLOCK
  2
-001-BLK250
 70
   64
 10
0
 20
0
 30
0
  0
INSERT
  2
-000-BLK249
  8
_0-2_
 10
277.40680500000002
 20
912.76830000000007
 41
1
 42
1
 50
0
  0
ENDBLK
  0
ENDSEC
  0
SECTION
  2
ENTITIES
  0
LINE
  8
_0-0_
  6
CONTINUOUS
 62
    7
 10
810.74932625754354
 20
745
 11
847.75894520077702
 21
766.3675134594813
  0
TEXT
  8
_0-f_
 62
    7
 10
1040
 20
575
 40
20
 41
1
 50
0
  1
　　　指定色にて、焼付け塗装できます。
  0
LINE
  8
_0-f_
  6
CONTINUOUS
 62
    3
 10
50
 20
1000
 11
50
 21
50
  0
LINE
  8
_0-f_
  6
CONTINUOUS
 62
    3
 10
50
 20
50
 11
1435
 21
50
  0
LINE
  8
_0-f_
  6
CONTINUOUS
 62
    3
 10
1435
 20
50
 11
1435
 21
1000
  0
LINE
  8
_0-f_
  6
CONTINUOUS
 62
    3
 10
1435
 20
1000
 11
50
 21
1000
  0
LINE
  8
_0-f_
  6
CONTINUOUS
 62
    7
 10
485
 20
95
 11
1435
 21
95
  0
LINE
  8
_0-f_
  6
CONTINUOUS
 62
    7
 10
485
 20
185
 11
1435
 21
185
  0
LINE
  8
_0-f_
  6
CONTINUOUS
 62
    7
 10
485
 20
50
 11
485
 21
230
  0
LINE
  8
_0-f_
  6
CONTINUOUS
 62
    7
 10
485
 20
230
 11
1435
 21
230
  0
LINE
  8
_0-f_
  6
CONTINUOUS
 62
    7
 10
1350
 20
50
 11
1350
 21
95
  0
LINE
  8
_0-f_
  6
CONTINUOUS
 62
    7
 10
960
 20
95
 11
960
 21
230
  0
LINE
  8
_0-f_
  6
CONTINUOUS
 62
    7
 10
1310
 20
140
 11
1310
 21
230
  0
LINE
  8
_0-f_
  6
CONTINUOUS
 62
    7
 10
685
 20
95
 11
685
 21
185
  0
LINE
  8
_0-f_
  6
CONTINUOUS
 62
    7
 10
585
 20
95
 11
585
 21
185
  0
LINE
  8
_0-f_
  6
CONTINUOUS
 62
    7
 10
785
 20
140
 11
1435
 21
140
  0
LINE
  8
_0-f_
  6
CONTINUOUS
 62
    7
 10
785
 20
50
 11
785
 21
185
  0
TEXT
  8
_0-f_
 62
    7
 10
490
 20
210
 40
15
 41
0.6666666666666666
 50
0
  1
注
  0
TEXT
  8
_0-f_
 62
    7
 10
965
 20
210
 40
15
 41
0.6666666666666666
 50
0
  1
材質　MATERIAL
  0
POINT
  8
_0-f_
 62
    9
 10
520
 20
187.5
  0
POINT
  8
_0-f_
 62
    9
 10
1005
 20
187.5
  0
POINT
  8
_0-f_
 62
    9
 10
965
 20
210
  0
TEXT
  8
_0-f_
 62
    7
 10
1315
 20
210
 40
15
 41
0.6666666666666666
 50
0
  1
個数　QUANTITY
  0
TEXT
  8
_0-f_
 62
    7
 10
490
 20
165
 40
15
 41
0.6666666666666666
 50
0
  1
APPROVED
  0
TEXT
  8
_0-f_
 62
    7
 10
590
 20
165
 40
15
 41
0.6666666666666666
 50
0
  1
CHECKED
  0
TEXT
  8
_0-f_
 62
    7
 10
690
 20
165
 40
15
 41
0.6666666666666666
 50
0
  1
DESIGNER
  0
TEXT
  8
_0-f_
 62
    7
 10
790
 20
165
 40
15
 41
0.6666666666666666
 50
0
  1
図面サイズ　SIZU
  0
TEXT
  8
_0-f_
 62
    7
 10
790
 20
120
 40
15
 41
0.6666666666666666
 50
0
  1
日付　DATE
  0
TEXT
  8
_0-f_
 62
    7
 10
965
 20
165
 40
15
 41
0.6666666666666666
 50
0
  1
表面処理　SURFACE TREATMENT
  0
TEXT
  8
_0-f_
 62
    7
 10
1315
 20
165
 40
15
 41
0.6666666666666666
 50
0
  1
尺度　SCALE
  0
TEXT
  8
_0-f_
 62
    7
 10
790
 20
72.5
 40
17.5
 41
0.7142857142857143
 50
0
  1
図　　番
  0
TEXT
  8
_0-f_
 62
    7
 10
852.5
 20
80
 40
10
 41
1
 50
0
  1
DRAWING No
  0
TEXT
  8
_0-f_
 62
    7
 10
1005
 20
187.5
 40
17.5
 41
1
 50
0
  1
別記
  0
TEXT
  8
_0-f_
 62
    7
 10
1340
 20
187.5
 40
17.5
 41
1
 50
0
  1
別記
  0
TEXT
  8
_0-f_
 62
    7
 10
1355
 20
75
 40
15
 41
0.6666666666666666
 50
0
  1
ユニット
  0
TEXT
  8
_0-f_
 62
    7
 10
710
 20
97.5
 40
25
 41
1
 50
0
  1
玉置
  0
TEXT
  8
_0-f_
 62
    7
 10
580
 20
57.5
 40
30
 41
0.8333333333333333
 50
0
  1
株式会社アウス
  0
POINT
  8
_0-f_
 62
    9
 10
535
 20
97.5
  0
POINT
  8
_0-f_
 62
    9
 10
635
 20
97.5
  0
POINT
  8
_0-f_
 62
    9
 10
735
 20
97.5
  0
POINT
  8
_0-f_
 62
    9
 10
490
 20
165
  0
POINT
  8
_0-f_
 62
    9
 10
590
 20
165
  0
POINT
  8
_0-f_
 62
    9
 10
690
 20
165
  0
POINT
  8
_0-f_
 62
    9
 10
790
 20
165
  0
POINT
  8
_0-f_
 62
    9
 10
965
 20
165
  0
POINT
  8
_0-f_
 62
    9
 10
980
 20
142.5
  0
POINT
  8
_0-f_
 62
    9
 10
790
 20
72.5
  0
POINT
  8
_0-f_
 62
    9
 10
580
 20
57.5
  0
POINT
  8
_0-f_
 62
    9
 10
980
 20
52.5
  0
POINT
  8
_0-f_
 62
    9
 10
980
 20
97.5
  0
POINT
  8
_0-f_
 62
    9
 10
1325
 20
142.5
  0
POINT
  8
_0-f_
 62
    9
 10
1315
 20
165
  0
POINT
  8
_0-f_
 62
    9
 10
1315
 20
210
  0
POINT
  8
_0-f_
 62
    9
 10
1340
 20
187.5
  0
POINT
  8
_0-f_
 62
    9
 10
1375
 20
52.5
  0
POINT
  8
_0-f_
 62
    9
 10
1355
 20
75
  0
POINT
  8
_0-f_
 62
    9
 10
790
 20
120
  0
POINT
  8
_0-f_
 62
    9
 10
872.5
 20
142.5
  0
POINT
  8
_0-f_
 62
    9
 10
872.5
 20
97.5
  0
TEXT
  8
_0-f_
 62
    7
 10
855
 20
142.5
 40
17.5
 41
1
 50
0
  1
Ａ４
  0
TEXT
  8
_0-f_
 62
    7
 10
965
 20
122.5
 40
15
 41
0.6666666666666666
 50
0
  1
図面名　TITLE
  0
POINT
  8
_0-f_
 62
    9
 10
965
 20
122.5
  0
TEXT
  8
_0-f_
 62
    7
 10
520
 20
187.5
 40
17.5
 41
1
 50
0
  1
　
  0
TEXT
  8
_0-f_
 62
    7
 10
995
 20
450
 40
20
 41
1
 50
0
  1
番号
  0
TEXT
  8
_0-f_
 62
    7
 10
1005
 20
420
 40
20
 41
1
 50
0
  1
１
  0
TEXT
  8
_0-f_
 62
    7
 10
1005
 20
390
 40
20
 41
1
 50
0
  1
２
  0
POINT
  8
_0-f_
 62
    9
 10
1015
 20
450
  0
POINT
  8
_0-f_
 62
    9
 10
1015
 20
420
  0
POINT
  8
_0-f_
 62
    9
 10
1015
 20
390
  0
LINE
  8
_0-f_
  6
CONTINUOUS
 62
    7
 10
990
 20
475
 11
1410
 21
475
  0
LINE
  8
_0-f_
  6
CONTINUOUS
 62
    7
 10
990
 20
445
 11
1410
 21
445
  0
LINE
  8
_0-f_
  6
CONTINUOUS
 62
    7
 10
990
 20
415
 11
1410
 21
415
  0
LINE
  8
_0-f_
  6
CONTINUOUS
 62
    7
 10
990
 20
385
 11
1410
 21
385
  0
POINT
  8
_0-f_
 62
    9
 10
1115
 20
450
  0
POINT
  8
_0-f_
 62
    9
 10
1115
 20
420
  0
POINT
  8
_0-f_
 62
    9
 10
1115
 20
390
  0
POINT
  8
_0-f_
 62
    9
 10
1335
 20
390
  0
POINT
  8
_0-f_
 62
    9
 10
1335
 20
420
  0
POINT
  8
_0-f_
 62
    9
 10
1335
 20
450
  0
POINT
  8
_0-f_
 62
    9
 10
1225
 20
450
  0
POINT
  8
_0-f_
 62
    9
 10
1225
 20
420
  0
POINT
  8
_0-f_
 62
    9
 10
1225
 20
390
  0
POINT
  8
_0-f_
 62
    9
 10
1015
 20
360
  0
LINE
  8
_0-f_
  6
CONTINUOUS
 62
    7
 10
990
 20
355
 11
1410
 21
355
  0
POINT
  8
_0-f_
 62
    9
 10
1115
 20
360
  0
POINT
  8
_0-f_
 62
    9
 10
1335
 20
360
  0
POINT
  8
_0-f_
 62
    9
 10
1225
 20
360
  0
TEXT
  8
_0-f_
 62
    7
 10
1005
 20
360
 40
20
 41
1
 50
0
  1
３
  0
TEXT
  8
_0-f_
 62
    7
 10
1315
 20
450
 40
20
 41
1
 50
0
  1
備考
  0
TEXT
  8
_0-f_
 62
    7
 10
1205
 20
450
 40
20
 41
1
 50
0
  1
材質
  0
TEXT
  8
_0-f_
 62
    7
 10
1065
 20
450
 40
20
 41
1
 50
0
  1
部　材　名
  0
POINT
  8
_0-f_
 62
    9
 10
1015
 20
330
  0
LINE
  8
_0-f_
  6
CONTINUOUS
 62
    7
 10
990
 20
325
 11
1410
 21
325
  0
POINT
  8
_0-f_
 62
    9
 10
1115
 20
330
  0
POINT
  8
_0-f_
 62
    9
 10
1335
 20
330
  0
POINT
  8
_0-f_
 62
    9
 10
1225
 20
330
  0
POINT
  8
_0-f_
 62
    9
 10
1015
 20
300
  0
LINE
  8
_0-f_
  6
CONTINUOUS
 62
    7
 10
990
 20
295
 11
1410
 21
295
  0
POINT
  8
_0-f_
 62
    9
 10
1115
 20
300
  0
POINT
  8
_0-f_
 62
    9
 10
1335
 20
300
  0
POINT
  8
_0-f_
 62
    9
 10
1225
 20
300
  0
POINT
  8
_0-f_
 62
    9
 10
1015
 20
270
  0
LINE
  8
_0-f_
  6
CONTINUOUS
 62
    7
 10
990
 20
265
 11
1410
 21
265
  0
POINT
  8
_0-f_
 62
    9
 10
1115
 20
270
  0
POINT
  8
_0-f_
 62
    9
 10
1335
 20
270
  0
POINT
  8
_0-f_
 62
    9
 10
1225
 20
270
  0
LINE
  8
_0-f_
  6
CONTINUOUS
 62
    7
 10
990
 20
265
 11
990
 21
475
  0
LINE
  8
_0-f_
  6
CONTINUOUS
 62
    7
 10
1040
 20
265
 11
1040
 21
475
  0
LINE
  8
_0-f_
  6
CONTINUOUS
 62
    7
 10
1190
 20
265
 11
1190
 21
475
  0
LINE
  8
_0-f_
  6
CONTINUOUS
 62
    7
 10
1260
 20
265
 11
1260
 21
475
  0
LINE
  8
_0-f_
  6
CONTINUOUS
 62
    7
 10
1410
 20
265
 11
1410
 21
475
  0
TEXT
  8
_0-f_
 62
    7
 10
1105
 20
420
 40
20
 41
1
 50
0
  1
扉
  0
TEXT
  8
_0-f_
 62
    7
 10
1095
 20
390
 40
20
 41
1
 50
0
  1
本体
  0
TEXT
  8
_0-f_
 62
    7
 10
1095
 20
360
 40
20
 41
1
 50
0
  1
背板
  0
TEXT
  8
_0-f_
 62
    7
 10
1085
 20
330
 40
20
 41
1
 50
0
  1
回転軸
  0
TEXT
  8
_0-f_
 62
    7
 10
1045
 20
300
 40
20
 41
0.875
 50
0
  1
小型平面ハンドル
  0
TEXT
  8
_0-f_
 62
    7
 10
1105
 20
270
 40
20
 41
1
 50
0
  1
鍵
  0
TEXT
  8
_0-f_
 62
    7
 10
1195
 20
420
 40
20
 41
1
 50
0
  1
SUS304
  0
TEXT
  8
_0-f_
 62
    7
 10
1195
 20
390
 40
20
 41
1
 50
0
  1
SUS304
  0
TEXT
  8
_0-f_
 62
    7
 10
1195
 20
360
 40
20
 41
1
 50
0
  1
SUS304
  0
TEXT
  8
_0-f_
 62
    7
 10
1195
 20
330
 40
20
 41
1
 50
0
  1
SUS304
  0
TEXT
  8
_0-f_
 62
    7
 10
1210
 20
300
 40
20
 41
1
 50
0
  1
ZDC
  0
TEXT
  8
_0-f_
 62
    7
 10
1325
 20
420
 40
20
 41
1
 50
0
  1
t3
  0
TEXT
  8
_0-f_
 62
    7
 10
1315
 20
390
 40
20
 41
1
 50
0
  1
t1.2
  0
TEXT
  8
_0-f_
 62
    7
 10
1315
 20
360
 40
20
 41
1
 50
0
  1
t1.2
  0
TEXT
  8
_0-f_
 62
    7
 10
1320
 20
330
 40
20
 41
1
 50
0
  1
φ4
  0
TEXT
  8
_0-f_
 62
    7
 10
1375
 20
52.5
 40
17.5
 41
1
 50
0
  1
SB
  0
TEXT
  8
_0-f_
 62
    7
 10
1005
 20
330
 40
20
 41
1
 50
0
  1
４
  0
TEXT
  8
_0-f_
 62
    7
 10
1005
 20
300
 40
20
 41
1
 50
0
  1
５
  0
TEXT
  8
_0-f_
 62
    7
 10
1005
 20
270
 40
20
 41
1
 50
0
  1
６
  0
TEXT
  8
_0-f_
 62
    7
 10
1040
 20
650
 40
20
 41
1
 50
0
  1
※１）表面ヘアーライン仕上げ
  0
TEXT
  8
_0-f_
 62
    7
 10
1040
 20
625
 40
20
 41
1
 50
0
  1
※２）文字の色は、ブルー
  0
TEXT
  8
_0-f_
 62
    7
 10
1040
 20
600
 40
20
 41
1
 50
0
  1
※３）単品より、（社）日本塗料工業会の
  0
LINE
  8
_0-6_
  6
CONTINUOUS
 62
    7
 10
1227.36284
 20
813.83488499999999
 11
1237.6371599999998
 21
813.83488499999999
  0
LINE
  8
_0-6_
  6
CONTINUOUS
 62
    7
 10
1221.9104
 20
830.08488499999999
 11
1223.6214825
 21
815.54067750000002
  0
LINE
  8
_0-6_
  6
CONTINUOUS
 62
    7
 10
1243.08960125
 20
830.08488499999999
 11
1221.9104
 21
830.08488499999999
  0
ARC
  8
_0-6_
  6
CONTINUOUS
 62
    7
 10
1242.5
 20
808.125
 40
7.5
 50
98.599745999999996
 51
130.41947099999999
  0
ARC
  8
_0-6_
  6
CONTINUOUS
 62
    7
 10
1222.5
 20
808.125
 40
7.5
 50
49.580528999999999
 51
81.400254000000018
  0
ARC
  8
_0-6_
  6
CONTINUOUS
 62
    7
 10
1222.5
 20
808.125
 40
6.25
 50
0
 51
85.340751000000012
  0
ARC
  8
_0-6_
  6
CONTINUOUS
 62
    7
 10
1242.5
 20
808.125
 40
6.25
 50
94.659249000000017
 51
180
  0
LINE
  8
_0-6_
  6
CONTINUOUS
 62
    7
 10
1244.75485125
 20
833.54122875000007
 11
1242.56226625
 21
814.90425500000003
  0
LINE
  8
_0-6_
  6
CONTINUOUS
 62
    7
 10
1232.5
 20
839.375
 11
1242.99034375
 21
836.22789749999993
  0
LINE
  8
_0-6_
  6
CONTINUOUS
 62
    7
 10
1220.2451500000002
 20
833.54122875000007
 11
1222.437735
 21
814.90425500000003
  0
LINE
  8
_0-6_
  6
CONTINUOUS
 62
    7
 10
1232.5
 20
839.375
 11
1222.00965625
 21
836.22789749999993
  0
ARC
  8
_0-6_
  6
CONTINUOUS
 62
    7
 10
1242.2719737500001
 20
833.83333125000013
 40
2.5
 50
353.29016300000001
 51
73.300755999999993
  0
ARC
  8
_0-6_
  6
CONTINUOUS
 62
    7
 10
1222.7280262499999
 20
833.83333125000013
 40
2.5
 50
106.69924399999999
 51
186.70983699999999
  0
ARC
  8
_0-6_
  6
CONTINUOUS
 62
    7
 10
1223.0584537499999
 20
814.97728124999992
 40
0.625
 50
186.70983700000002
 51
265.34075100000001
  0
ARC
  8
_0-6_
  6
CONTINUOUS
 62
    7
 10
1241.9415462499999
 20
814.97728124999992
 40
0.625
 50
274.65924899999999
 51
353.29016300000001
  0
ARC
  8
_0-6_
  6
CONTINUOUS
 62
    7
 10
1225
 20
833.20988499999999
 40
1.25
 50
106.69924399999999
 51
270
  0
ARC
  8
_0-6_
  6
CONTINUOUS
 62
    7
 10
1240
 20
833.20988499999999
 40
1.25
 50
270
 51
73.300756000000007
  0
LINE
  8
_0-6_
  6
CONTINUOUS
 62
    7
 10
1231.875
 20
803.125
 11
1233.125
 21
803.125
  0
LINE
  8
_0-6_
  6
CONTINUOUS
 62
    7
 10
1225
 20
831.95988499999999
 11
1240
 21
831.95988499999999
  0
LINE
  8
_0-6_
  6
CONTINUOUS
 62
    7
 10
1240.359185
 20
834.40716750000001
 11
1232.5
 21
836.76492374999998
  0
LINE
  8
_0-6_
  6
CONTINUOUS
 62
    7
 10
1224.640815
 20
834.40716750000001
 11
1232.5
 21
836.76492374999998
  0
ARC
  8
_0-6_
  6
CONTINUOUS
 62
    7
 10
1231.875
 20
801.875
 40
1.25
 50
90
 51
180
  0
LINE
  8
_0-6_
  6
CONTINUOUS
 62
    7
 10
1236.25
 20
795.625
 11
1236.25
 21
808.125
  0
ARC
  8
_0-6_
  6
CONTINUOUS
 62
    7
 10
1233.125
 20
801.875
 40
1.25
 50
0
 51
90
  0
LINE
  8
_0-6_
  6
CONTINUOUS
 62
    7
 10
1234.375
 20
795.625
 11
1236.25
 21
795.625
  0
LINE
  8
_0-6_
  6
CONTINUOUS
 62
    7
 10
1234.375
 20
801.875
 11
1234.375
 21
795.625
  0
LINE
  8
_0-6_
  6
CONTINUOUS
 62
    7
 10
1230.625
 20
795.625
 11
1230.625
 21
801.875
  0
LINE
  8
_0-6_
  6
CONTINUOUS
 62
    7
 10
1228.75
 20
795.625
 11
1230.625
 21
795.625
  0
LINE
  8
_0-6_
  6
CONTINUOUS
 62
    7
 10
1228.75
 20
808.125
 11
1228.75
 21
795.625
  0
CIRCLE
  8
_0-0_
  6
CONTINUOUS
 62
    7
 10
1195.2280262499999
 20
864.375
 40
15
  0
TEXT
  8
_0-0_
 62
    7
 10
1182.7280262499999
 20
851.875
 40
25
 41
1
 50
0
  1
６
  0
INSERT
  2
-001-BLK250
  8
_0-6_
 10
1166.7448316450289
 20
599.72845693895897
 41
0.25
 42
0.25
 50
0
  0
LINE
  8
_0-6_
  6
CONTINUOUS
 62
    7
 10
1241.37851875
 20
815.54067750000002
 11
1243.08960125
 21
830.08488499999999
  0
LINE
  8
_0-1_
  6
CONTINUOUS
 62
    7
 10
270.99999550000757
 20
828.9999933597262
 11
488.99999838128554
 21
828.9999933597262
  0
LINE
  8
_0-1_
  6
CONTINUOUS
 62
    7
 10
270.99999550000757
 20
828.9999933597262
 11
270.99999550000757
 21
560.99999965334371
  0
LINE
  8
_0-1_
  6
CONTINUOUS
 62
    7
 10
488.99999838128554
 20
828.9999933597262
 11
488.99999838128554
 21
560.99999965334371
  0
LINE
  8
_0-1_
  6
CONTINUOUS
 62
    7
 10
488.99999838128554
 20
560.99999965334371
 11
270.99999550000757
 21
560.99999965334371
  0
TEXT
  8
_0-1_
 62
    7
 10
379.99999137051356
 20
754.99999650653513
 40
32
 41
1
 50
0
  1
散水栓
  7
TATEGAKI
  0
LINE
  8
_0-2_
  6
CONTINUOUS
 62
    7
 10
255
 20
845
 11
269.99998951485748
 21
829.9999882046103
  0
LINE
  8
_0-2_
  6
CONTINUOUS
 62
    7
 10
255
 20
845
 11
504.99998274102711
 21
845
  0
LINE
  8
_0-2_
  6
CONTINUOUS
 62
    7
 10
255
 20
845
 11
255
 21
544.99999301307002
  0
LINE
  8
_0-2_
  6
CONTINUOUS
 62
    7
 10
269.99998951485748
 20
829.9999882046103
 11
489.99999322616952
 21
829.9999882046103
  0
LINE
  8
_0-2_
  6
CONTINUOUS
 62
    7
 10
269.99998951485748
 20
829.9999882046103
 11
269.99998951485748
 21
560.00000480845972
  0
LINE
  8
_0-2_
  6
CONTINUOUS
 62
    7
 10
255
 20
544.99999301307002
 11
269.99998951485748
 21
560.00000480845972
  0
LINE
  8
_0-2_
  6
CONTINUOUS
 62
    7
 10
489.99999322616952
 20
560.00000480845972
 11
269.99998951485748
 21
560.00000480845972
  0
LINE
  8
_0-2_
  6
CONTINUOUS
 62
    7
 10
504.99998274102711
 20
544.99999301307002
 11
255
 21
544.99999301307002
  0
LINE
  8
_0-2_
  6
CONTINUOUS
 62
    7
 10
489.99999322616952
 20
560.00000480845972
 11
504.99998274102711
 21
544.99999301307002
  0
LINE
  8
_0-2_
  6
CONTINUOUS
 62
    7
 10
504.99998274102711
 20
845
 11
504.99998274102711
 21
544.99999301307002
  0
LINE
  8
_0-2_
  6
CONTINUOUS
 62
    7
 10
489.99999322616952
 20
829.9999882046103
 11
489.99999322616952
 21
560.00000480845972
  0
LINE
  8
_0-2_
  6
CONTINUOUS
 62
    7
 10
504.99998274102711
 20
845
 11
489.99999322616952
 21
829.9999882046103
  0
LINE
  8
_0-2_
  6
CONTINUOUS
 62
    7
 10
660.74932582184942
 20
845
 11
810.74932625754354
 21
845
  0
LINE
  8
_0-2_
  6
CONTINUOUS
 62
    7
 10
660.74932582184942
 20
845
 11
660.74932582184942
 21
544.99999301307002
  0
LINE
  8
_0-2_
  6
CONTINUOUS
 62
    7
 10
810.74932625754354
 20
845
 11
810.74932625754354
 21
544.99999301307002
  0
LINE
  8
_0-2_
  6
CONTINUOUS
 62
    7
 10
660.74932582184942
 20
544.99999301307002
 11
810.74932625754354
 21
544.99999301307002
  0
LINE
  8
_0-2_
  6
CONTINUOUS
 62
    7
 10
504.99998274102711
 20
389.2253246720054
 11
504.99998274102711
 21
239.22533537657733
  0
LINE
  8
_0-2_
  6
CONTINUOUS
 62
    7
 10
255
 20
389.2253246720054
 11
504.99998274102711
 21
389.2253246720054
  0
LINE
  8
_0-2_
  6
CONTINUOUS
 62
    7
 10
255
 20
389.2253246720054
 11
255
 21
239.22533537657733
  0
LINE
  8
_0-2_
  6
CONTINUOUS
 62
    7
 10
255
 20
239.22533537657733
 11
504.99998274102711
 21
239.22533537657733
  0
LINE
  8
_0-4_
  6
DASHED2
 62
    4
 10
475.50000113375404
 20
804.99998339931562
 11
475.50000113375404
 21
828.9999933597262
  0
LINE
  8
_0-4_
  6
DASHED2
 62
    4
 10
475.50000113375404
 20
804.99998339931562
 11
482.49998732847467
 21
804.99998339931562
  0
LINE
  8
_0-4_
  6
DASHED2
 62
    4
 10
482.49998732847467
 20
804.99998339931562
 11
482.49998732847467
 21
828.9999933597262
  0
LINE
  8
_0-4_
  6
DASHED2
 62
    4
 10
482.49998732847467
 20
584.99998733322218
 11
482.49998732847467
 21
560.99999965334371
  0
LINE
  8
_0-4_
  6
DASHED2
 62
    4
 10
475.50000113375404
 20
584.99998733322218
 11
475.50000113375404
 21
560.99999965334371
  0
LINE
  8
_0-4_
  6
DASHED2
 62
    4
 10
482.49998732847467
 20
584.99998733322218
 11
475.50000113375404
 21
584.99998733322218
  0
LINE
  8
_0-5_
  6
CONTINUOUS
 62
    7
 10
303.99999248517304
 20
394.99999300000002
 11
303.99999248517304
 21
391.7253340647477
  0
LINE
  8
_0-5_
  6
CONTINUOUS
 62
    7
 10
307.99999414524154
 20
390.22534179742172
 11
306.49999073764934
 21
391.7253340647477
  0
LINE
  8
_0-5_
  6
CONTINUOUS
 62
    7
 10
285.49999873268916
 20
391.7253340647477
 11
306.49999073764934
 21
391.7253340647477
  0
LINE
  8
_0-5_
  6
CONTINUOUS
 62
    7
 10
307.99999414524154
 20
390.22534179742172
 11
307.99999414524154
 21
389.2253246720054
  0
LINE
  8
_0-5_
  6
CONTINUOUS
 62
    7
 10
285.49999873268916
 20
391.7253340647477
 11
283.99999532509702
 21
390.22534179742172
  0
LINE
  8
_0-5_
  6
CONTINUOUS
 62
    7
 10
283.99999532509702
 20
390.22534179742172
 11
283.99999532509702
 21
389.2253246720054
  0
LINE
  8
_0-5_
  6
CONTINUOUS
 62
    7
 10
307.99999414524154
 20
389.2253246720054
 11
283.99999532509702
 21
389.2253246720054
  0
LINE
  8
_0-5_
  6
CONTINUOUS
 62
    7
 10
307.99999414524154
 20
390.22534179742172
 11
283.99999532509702
 21
390.22534179742172
  0
LINE
  8
_0-5_
  6
CONTINUOUS
 62
    7
 10
287.99999698516547
 20
394.99999300000002
 11
287.99999698516547
 21
391.7253340647477
  0
LINE
  8
_0-5_
  6
CONTINUOUS
 62
    7
 10
289.441959606453
 20
391.7253340647477
 11
303.52161831920273
 21
391.7253340647477
  0
LINE
  8
_0-5_
  6
CONTINUOUS
 62
    7
 10
287.99999698516547
 20
394.99999300000002
 11
303.99999248517304
 21
394.99999300000002
  0
LINE
  8
_0-5_
  6
CONTINUOUS
 62
    7
 10
295.9857073439149
 20
676.39992974380652
 11
297.66460114430527
 21
678.0788124039309
  0
LINE
  8
_0-5_
  6
CONTINUOUS
 62
    7
 10
297.39991956238384
 20
674.98569524480536
 11
299.07880222250822
 21
676.66457790492973
  0
LINE
  8
_0-5_
  6
CONTINUOUS
 62
    7
 10
307.99999414524154
 20
729.99998318146845
 11
307.99999414524154
 21
659.99998755106913
  0
LINE
  8
_0-5_
  6
CONTINUOUS
 62
    7
 10
283.99999532509702
 20
729.99998318146845
 11
283.99999532509702
 21
659.99998755106913
  0
LINE
  8
_0-5_
  6
CONTINUOUS
 62
    7
 10
283.99999532509702
 20
659.99998755106913
 11
307.99999414524154
 21
659.99998755106913
  0
LINE
  8
_0-5_
  6
CONTINUOUS
 62
    7
 10
294.33539946629935
 20
671.92118628898697
 11
296.01428212642372
 21
673.60006894911123
  0
LINE
  8
_0-5_
  6
CONTINUOUS
 62
    7
 10
292.92117610756418
 20
673.3353762269237
 11
294.60006990795478
 21
675.01425888704807
  0
LINE
  8
_0-5_
  6
CONTINUOUS
 62
    7
 10
306.49999073764934
 20
728.50001319467469
 11
306.49999073764934
 21
661.50000209892733
  0
LINE
  8
_0-5_
  6
CONTINUOUS
 62
    7
 10
285.49999873268916
 20
728.50001319467469
 11
285.49999873268916
 21
661.50000209892733
  0
LINE
  8
_0-5_
  6
CONTINUOUS
 62
    7
 10
285.49999873268916
 20
661.50000209892733
 11
306.49999073764934
 21
661.50000209892733
  0
LINE
  8
_0-5_
  6
CONTINUOUS
 62
    7
 10
306.49999073764934
 20
661.50000209892733
 11
307.99999414524154
 21
659.99998755106913
  0
LINE
  8
_0-5_
  6
CONTINUOUS
 62
    7
 10
285.49999873268916
 20
661.50000209892733
 11
283.99999532509702
 21
659.99998755106913
  0
LINE
  8
_0-5_
  6
CONTINUOUS
 62
    7
 10
285.49999873268916
 20
728.50001319467469
 11
283.99999532509702
 21
729.99998318146845
  0
LINE
  8
_0-5_
  6
CONTINUOUS
 62
    7
 10
287.99999698516547
 20
718.99999532667948
 11
303.99999248517304
 21
718.99999532667948
  0
LINE
  8
_0-5_
  6
CONTINUOUS
 62
    7
 10
303.99999248517304
 20
718.99999532667948
 11
303.99999248517304
 21
669.99998056097411
  0
LINE
  8
_0-5_
  6
CONTINUOUS
 62
    7
 10
287.99999698516547
 20
669.99998056097411
 11
287.99999698516547
 21
718.99999532667948
  0
LINE
  8
_0-5_
  6
CONTINUOUS
 62
    7
 10
289.99999781519966
 20
707.0000126270063
 11
289.99999781519966
 21
712.5000065544009
  0
LINE
  8
_0-5_
  6
CONTINUOUS
 62
    7
 10
301.99999165513884
 20
715.49999108905297
 11
301.99999165513884
 21
714.99997138607887
  0
LINE
  8
_0-5_
  6
CONTINUOUS
 62
    7
 10
287.99999698516547
 20
704.999978376174
 11
303.99999248517304
 21
704.999978376174
  0
LINE
  8
_0-5_
  6
CONTINUOUS
 62
    7
 10
287.99999698516547
 20
716.74988438276341
 11
303.99999248517304
 21
716.74988438276341
  0
LINE
  8
_0-5_
  6
CONTINUOUS
 62
    7
 10
287.99999698516547
 20
718.62180557361455
 11
303.99999248517304
 21
718.62180557361455
  0
LINE
  8
_0-5_
  6
CONTINUOUS
 62
    7
 10
289.99999781519966
 20
715.49999108905297
 11
301.99999165513884
 21
715.49999108905297
  0
LINE
  8
_0-5_
  6
CONTINUOUS
 62
    7
 10
289.99999781519966
 20
714.99997138607887
 11
301.99999165513884
 21
714.99997138607887
  0
LINE
  8
_0-5_
  6
CONTINUOUS
 62
    7
 10
289.99999781519966
 20
713.99997654119488
 11
301.99999165513884
 21
713.99997654119488
  0
LINE
  8
_0-5_
  6
CONTINUOUS
 62
    7
 10
289.99999781519966
 20
713.500001399285
 11
301.99999165513884
 21
713.500001399285
  0
LINE
  8
_0-5_
  6
CONTINUOUS
 62
    7
 10
289.99999781519966
 20
712.5000065544009
 11
301.99999165513884
 21
712.5000065544009
  0
LINE
  8
_0-5_
  6
CONTINUOUS
 62
    7
 10
289.99999781519966
 20
714.99997138607887
 11
289.99999781519966
 21
715.49999108905297
  0
LINE
  8
_0-5_
  6
CONTINUOUS
 62
    7
 10
301.99999165513884
 20
713.99997654119488
 11
301.99999165513884
 21
713.500001399285
  0
LINE
  8
_0-5_
  6
CONTINUOUS
 62
    7
 10
289.99999781519966
 20
713.500001399285
 11
289.99999781519966
 21
713.99997654119488
  0
LINE
  8
_0-5_
  6
CONTINUOUS
 62
    7
 10
301.99999165513884
 20
712.5000065544009
 11
301.99999165513884
 21
707.0000126270063
  0
LINE
  8
_0-5_
  6
CONTINUOUS
 62
    7
 10
289.99999781519966
 20
707.0000126270063
 11
301.99999165513884
 21
707.0000126270063
  0
LINE
  8
_0-5_
  6
CONTINUOUS
 62
    7
 10
287.99999698516547
 20
669.99998056097411
 11
303.99999248517304
 21
669.99998056097411
  0
LINE
  8
_0-5_
  6
CONTINUOUS
 62
    7
 10
307.99999414524154
 20
729.99998318146845
 11
306.49999073764934
 21
728.50001319467469
  0
LINE
  8
_0-5_
  6
CONTINUOUS
 62
    7
 10
285.49999873268916
 20
728.50001319467469
 11
306.49999073764934
 21
728.50001319467469
  0
LINE
  8
_0-5_
  6
CONTINUOUS
 62
    7
 10
283.99999532509702
 20
729.99998318146845
 11
307.99999414524154
 21
729.99998318146845
  0
ARC
  8
_0-5_
  6
CONTINUOUS
 62
    7
 10
295.99998916503625
 20
674.99999934645882
 40
3.3999998096449211
 50
207.89532470703122
 51
242.10462951660153
  0
ARC
  8
_0-5_
  6
CONTINUOUS
 62
    7
 10
295.99998916503625
 20
674.99999934645882
 40
3.3999998096449211
 50
27.895355224609375
 51
62.1046142578125
  0
CIRCLE
  8
_0-5_
  6
CONTINUOUS
 62
    7
 10
295.99998916503625
 20
674.99999934645882
 40
3.500000060026621
  0
CIRCLE
  8
_0-5_
  6
CONTINUOUS
 62
    7
 10
295.99998916503625
 20
674.99999934645882
 40
1.3999999369773195
  0
LINE
  8
_0-5_
  6
CONTINUOUS
 62
    7
 10
658.24931642910713
 20
704.999978376174
 11
655.06239822954296
 21
715.69877799708001
  0
LINE
  8
_0-5_
  6
CONTINUOUS
 62
    7
 10
659.749286415901
 20
729.99998318146845
 11
660.74932582184942
 21
729.99998318146845
  0
LINE
  8
_0-5_
  6
CONTINUOUS
 62
    7
 10
658.24931642910713
 20
728.50001319467469
 11
659.749286415901
 21
729.99998318146845
  0
LINE
  8
_0-5_
  6
CONTINUOUS
 62
    7
 10
659.749286415901
 20
659.99998755106913
 11
660.74932582184942
 21
659.99998755106913
  0
LINE
  8
_0-5_
  6
CONTINUOUS
 62
    7
 10
658.24931642910713
 20
661.50000209892733
 11
659.749286415901
 21
659.99998755106913
  0
LINE
  8
_0-5_
  6
CONTINUOUS
 62
    7
 10
660.74932582184942
 20
729.99998318146845
 11
660.74932582184942
 21
659.99998755106913
  0
LINE
  8
_0-5_
  6
CONTINUOUS
 62
    7
 10
659.749286415901
 20
729.99998318146845
 11
659.749286415901
 21
659.99998755106913
  0
LINE
  8
_0-5_
  6
CONTINUOUS
 62
    7
 10
658.24931642910713
 20
728.50001319467469
 11
658.24931642910713
 21
661.50000209892733
  0
ARC
  8
_0-5_
  6
CONTINUOUS
 62
    7
 10
659.09245632750969
 20
713.61519175060732
 40
5.0771000271956872
 50
99.559310913085923
 51
131.74166870117185
  0
ARC
  8
_0-5_
  6
CONTINUOUS
 62
    7
 10
656.49998272625908
 20
716.12696526433581
 40
1.4999999262590333
 50
121.67852783203126
 51
196.58747863769531
  0
LINE
  8
_0-5_
  6
PHANTOM2
 62
    4
 10
631.98625053558908
 20
692.58981107923864
 11
652.02712133193245
 21
702.41066861049148
  0
LINE
  8
_0-5_
  6
PHANTOM2
 62
    4
 10
637.1901139099034
 20
686.7877822577384
 11
646.75737442398963
 21
691.47614095921995
  0
LINE
  8
_0-5_
  6
PHANTOM2
 62
    4
 10
647.90847583805521
 20
697.60832270642504
 11
653.12724488839149
 21
700.16572675003897
  0
LINE
  8
_0-5_
  6
PHANTOM2
 62
    4
 10
635.33869080864929
 20
687.22332210061086
 11
631.80914258536461
 21
691.83699645825618
  0
LINE
  8
_0-5_
  6
PHANTOM2
 62
    4
 10
647.57711976361293
 20
693.06826322707161
 11
647.08873049843191
 21
696.01615587750894
  0
ARC
  8
_0-5_
  6
PHANTOM2
 62
    4
 10
646.09729137790123
 20
692.82308825106554
 40
1.4999999262590333
 50
296.10676574707031
 51
9.4075622558593821
  0
ARC
  8
_0-5_
  6
PHANTOM2
 62
    4
 10
636.53005314434722
 20
688.13472954958434
 40
1.4999999262590333
 50
217.41667175292969
 51
296.10676574707031
  0
ARC
  8
_0-5_
  6
PHANTOM2
 62
    4
 10
648.56855888414339
 20
696.26133085351489
 40
1.4999999262590333
 50
116.10679626464844
 51
189.40751647949222
  0
ARC
  8
_0-5_
  6
PHANTOM2
 62
    4
 10
632.20627079077462
 20
692.14081379493541
 40
0.4999999899252325
 50
116.10679626464844
 51
217.41667175292972
  0
POINT
  8
_0-0_
 62
    2
 10
454.99998274102711
 20
745
  0
LINE
  8
_0-0_
  6
CONTINUOUS
 62
    7
 10
504.99998274102711
 20
645
 11
515.6065844588253
 21
655.60660171779818
  0
LINE
  8
_0-0_
  6
CONTINUOUS
 62
    7
 10
504.99998274102711
 20
645
 11
519.48887013536307
 21
648.88228567653778
  0
LINE
  8
_0-0_
  6
CONTINUOUS
 62
    7
 10
810.74932625754354
 20
745
 11
821.35592797534173
 21
755.6066017177983
  0
LINE
  8
_0-0_
  6
CONTINUOUS
 62
    7
 10
810.74932625754354
 20
745
 11
825.23821365187951
 21
748.88228567653778
  0
LINE
  8
_0-0_
  6
CONTINUOUS
 62
    7
 10
283.99999532509702
 20
694.99999650653513
 11
269.511107930761
 21
698.88228218307279
  0
LINE
  8
_0-0_
  6
CONTINUOUS
 62
    7
 10
283.99999532509702
 20
694.99999650653513
 11
273.39339360729878
 21
705.6065982243332
  0
LINE
  8
_0-0_
  6
CONTINUOUS
 62
    7
 10
478.99999423111439
 20
560.99999965334371
 11
489.60659594891251
 21
550.39339793554541
  0
LINE
  8
_0-0_
  6
CONTINUOUS
 62
    7
 10
478.99999423111439
 20
560.99999965334371
 11
482.88227990765216
 21
546.51111225900763
  0
CIRCLE
  8
_0-0_
  6
CONTINUOUS
 62
    7
 10
555
 20
802.73503688343521
 40
15
  0
TEXT
  8
_0-0_
 62
    7
 10
542.5
 20
790.23503688343521
 40
25
 41
1
 50
0
  1
１
  0
CIRCLE
  8
_0-0_
  6
CONTINUOUS
 62
    7
 10
555
 20
673.86752342395403
 40
15
  0
TEXT
  8
_0-0_
 62
    7
 10
542.5
 20
661.36752342395414
 40
25
 41
1
 50
0
  1
２
  0
CIRCLE
  8
_0-0_
  6
CONTINUOUS
 62
    7
 10
860.74932625754354
 20
773.8675134594813
 40
15
  0
TEXT
  8
_0-0_
 62
    7
 10
848.24932625754354
 20
761.3675134594813
 40
25
 41
1
 50
0
  1
３
  0
CIRCLE
  8
_0-0_
  6
CONTINUOUS
 62
    7
 10
517.10511179748755
 20
495
 40
15
  0
TEXT
  8
_0-0_
 62
    7
 10
504.60511179748755
 20
482.5
 40
25
 41
1
 50
0
  1
４
  0
CIRCLE
  8
_0-0_
  6
CONTINUOUS
 62
    7
 10
205
 20
740.61066507345902
 40
15
  0
TEXT
  8
_0-0_
 62
    7
 10
192.5
 20
728.11066507345902
 40
25
 41
1
 50
0
  1
５
  0
LINE
  8
_0-0_
  6
CONTINUOUS
 62
    7
 10
283.99999532509702
 20
694.99999650653513
 11
217.99038105676658
 21
733.1106650734589
  0
LINE
  8
_0-0_
  6
CONTINUOUS
 62
    7
 10
454.99998274102711
 20
745
 11
542.00961894323336
 21
795.23503688343521
  0
LINE
  8
_0-0_
  6
CONTINUOUS
 62
    7
 10
504.99998274102711
 20
645
 11
542.00961894323336
 21
666.36752342395403
  0
LINE
  8
_0-0_
  6
CONTINUOUS
 62
    7
 10
478.99999423111439
 20
560.99999965334371
 11
509.60511179748755
 21
507.99038105676658
  0
LINE
  8
_0-0_
  6
CONTINUOUS
 62
    2
 10
270.99999550000757
 20
880
 11
285.48888289434359
 21
883.88228567653778
  0
LINE
  8
_0-0_
  6
CONTINUOUS
 62
    2
 10
270.99999550000757
 20
880
 11
285.48888289434359
 21
876.11771432346222
  0
LINE
  8
_0-0_
  6
CONTINUOUS
 62
    2
 10
488.99999838128554
 20
880
 11
474.51111098694952
 21
883.88228567653778
  0
LINE
  8
_0-0_
  6
CONTINUOUS
 62
    2
 10
488.99999838128554
 20
880
 11
474.51111098694952
 21
876.11771432346222
  0
LINE
  8
_0-0_
  6
CONTINUOUS
 62
    2
 10
270.99999550000757
 20
885
 11
270.99999550000757
 21
833.9999933597262
  0
LINE
  8
_0-0_
  6
CONTINUOUS
 62
    2
 10
488.99999838128554
 20
885
 11
488.99999838128554
 21
833.9999933597262
  0
LINE
  8
_0-0_
  6
CONTINUOUS
 62
    2
 10
270.99999550000757
 20
880
 11
488.99999838128554
 21
880
  0
TEXT
  8
_0-0_
 62
    7
 10
359.99999694064655
 20
882.5
 40
25
 41
1
 50
0
  1
218
  0
LINE
  8
_0-0_
  6
CONTINUOUS
 62
    2
 10
255
 20
915
 11
269.48888739433596
 21
918.88228567653778
  0
LINE
  8
_0-0_
  6
CONTINUOUS
 62
    2
 10
255
 20
915
 11
269.48888739433596
 21
911.11771432346222
  0
LINE
  8
_0-0_
  6
CONTINUOUS
 62
    2
 10
504.99998274102711
 20
915
 11
490.51109534669109
 21
918.88228567653778
  0
LINE
  8
_0-0_
  6
CONTINUOUS
 62
    2
 10
504.99998274102711
 20
915
 11
490.51109534669109
 21
911.11771432346222
  0
LINE
  8
_0-0_
  6
CONTINUOUS
 62
    2
 10
255
 20
920
 11
255
 21
850
  0
LINE
  8
_0-0_
  6
CONTINUOUS
 62
    2
 10
504.99998274102711
 20
920
 11
504.99998274102711
 21
850
  0
LINE
  8
_0-0_
  6
CONTINUOUS
 62
    2
 10
255
 20
915
 11
504.99998274102711
 21
915
  0
TEXT
  8
_0-0_
 62
    7
 10
359.99999137051356
 20
917.5
 40
25
 41
1
 50
0
  1
250
  0
LINE
  8
_0-0_
  6
CONTINUOUS
 62
    2
 10
660.74932582184942
 20
915
 11
675.23821321618561
 21
918.88228567653778
  0
LINE
  8
_0-0_
  6
CONTINUOUS
 62
    2
 10
660.74932582184942
 20
915
 11
675.23821321618561
 21
911.11771432346222
  0
LINE
  8
_0-0_
  6
CONTINUOUS
 62
    2
 10
810.74932625754354
 20
915
 11
796.26043886320758
 21
918.88228567653778
  0
LINE
  8
_0-0_
  6
CONTINUOUS
 62
    2
 10
810.74932625754354
 20
915
 11
796.26043886320758
 21
911.11771432346222
  0
LINE
  8
_0-0_
  6
CONTINUOUS
 62
    2
 10
660.74932582184942
 20
920
 11
660.74932582184942
 21
850
  0
LINE
  8
_0-0_
  6
CONTINUOUS
 62
    2
 10
810.74932625754354
 20
920
 11
810.74932625754354
 21
850
  0
LINE
  8
_0-0_
  6
CONTINUOUS
 62
    2
 10
660.74932582184942
 20
915
 11
810.74932625754354
 21
915
  0
TEXT
  8
_0-0_
 62
    7
 10
715.74932603969637
 20
917.5
 40
25
 41
1
 50
0
  1
150
  0
LINE
  8
_0-0_
  6
CONTINUOUS
 62
    2
 10
170
 20
560.99999965334371
 11
166.11771432346217
 21
575.48888704767978
  0
LINE
  8
_0-0_
  6
CONTINUOUS
 62
    2
 10
170
 20
560.99999965334371
 11
173.88228567653783
 21
575.48888704767978
  0
LINE
  8
_0-0_
  6
CONTINUOUS
 62
    2
 10
170
 20
828.9999933597262
 11
166.11771432346217
 21
814.51110596539024
  0
LINE
  8
_0-0_
  6
CONTINUOUS
 62
    2
 10
170
 20
828.9999933597262
 11
173.88228567653783
 21
814.51110596539024
  0
LINE
  8
_0-0_
  6
CONTINUOUS
 62
    2
 10
165
 20
560.99999965334371
 11
265.99999550000757
 21
560.99999965334371
  0
LINE
  8
_0-0_
  6
CONTINUOUS
 62
    2
 10
165
 20
828.9999933597262
 11
265.99999550000757
 21
828.9999933597262
  0
LINE
  8
_0-0_
  6
CONTINUOUS
 62
    2
 10
170
 20
560.99999965334371
 11
170
 21
828.9999933597262
  0
TEXT
  8
_0-0_
 62
    7
 10
167.5
 20
674.9999965065349
 40
25
 41
1
 50
90
  1
268
  0
LINE
  8
_0-0_
  6
CONTINUOUS
 62
    2
 10
135
 20
544.99999301307002
 11
131.11771432346217
 21
559.48888040740599
  0
LINE
  8
_0-0_
  6
CONTINUOUS
 62
    2
 10
135
 20
544.99999301307002
 11
138.88228567653783
 21
559.48888040740599
  0
LINE
  8
_0-0_
  6
CONTINUOUS
 62
    2
 10
135
 20
845
 11
131.11771432346217
 21
830.51111260566404
  0
LINE
  8
_0-0_
  6
CONTINUOUS
 62
    2
 10
135
 20
845
 11
138.88228567653783
 21
830.51111260566404
  0
LINE
  8
_0-0_
  6
CONTINUOUS
 62
    2
 10
130
 20
544.99999301307002
 11
250
 21
544.99999301307002
  0
LINE
  8
_0-0_
  6
CONTINUOUS
 62
    2
 10
130
 20
845
 11
250
 21
845
  0
LINE
  8
_0-0_
  6
CONTINUOUS
 62
    2
 10
135
 20
544.99999301307002
 11
135
 21
845
  0
TEXT
  8
_0-0_
 62
    7
 10
132.5
 20
674.99999650653513
 40
25
 41
1
 50
90
  1
300
  0
TEXT
  8
_0-f_
 62
    7
 10
811.875
 20
97.5
 40
17.5
 41
1
 50
0
  1
2019.01.25.
  0
TEXT
  8
_0-f_
 62
    7
 10
1325
 20
142.5
 40
17.5
 41
1
 50
0
  1
FREE
  0
TEXT
  8
_0-f_
 62
    7
 10
980
 20
142.5
 40
17.5
 41
1
 50
0
  1
別記
  0
TEXT
  8
_0-f_
 62
    7
 10
980
 20
97.5
 40
22.5
 41
0.7777777777777777
 50
0
  1
ステンレス製 散水栓ボックス（壁用・露出型・鍵付）
  0
TEXT
  8
_0-f_
 62
    7
 10
980
 20
52.5
 40
22.5
 41
1
 50
0
  1
ＳＷＲ２Ｋ
  0
ENDSEC
  0
EOF
