  0
SECTION
  2
HEADER
  9
$ACADVER
  1
AC1009
  9
$INSBASE
 10
0
 20
0
 30
0
  9
$EXTMIN
 10
0
 20
0
  9
$EXTMAX
 10
1260
 20
891
  9
$LIMMIN
 10
0
 20
0
  9
$LIMMAX
 10
1260
 20
891
  9
$LTSCALE
 40
3
  0
ENDSEC
  0
SECTION
  2
TABLES
  0
TABLE
  2
LTYPE
 70
     9
  0
LTYPE
  2
CONTINUOUS
 70
    64
  3
実線
 72
    65
 73
     0
 40
0.0
  0
LTYPE
  2
DASHED1
 70
    64
  3
--  --  --  --  --  --  --  --  
 72
    65
 73
     2
 40
2.5
 49
1.25
 49
-1.25
  0
LTYPE
  2
DASHED2
 70
    64
  3
----    ----    ----    ----    
 72
    65
 73
     2
 40
5.0
 49
2.5
 49
-2.5
  0
LTYPE
  2
DASHED3
 70
    64
  3
------  ------  ------  ------  
 72
    65
 73
     2
 40
5.0
 49
3.75
 49
-1.25
  0
LTYPE
  2
CENTER1
 70
    64
  3
----- - ----- - ----- - ----- - 
 72
    65
 73
     4
 40
10.0
 49
6.25
 49
-1.25
 49
1.25
 49
-1.25
  0
LTYPE
  2
CENTER2
 70
    64
  3
----------  --  ----------  --  
 72
    65
 73
     4
 40
20.0
 49
12.5
 49
-2.5
 49
2.5
 49
-2.5
  0
LTYPE
  2
PHANTOM1
 70
    64
  3
--- - - --- - - --- - - --- - - 
 72
    65
 73
     6
 40
10.0
 49
3.25
 49
-1.25
 49
1.25
 49
-1.25
 49
1.25
 49
-1.25
  0
LTYPE
  2
PHANTOM2
 70
    64
  3
--------  -  -  --------  -  -  
 72
    65
 73
     6
 40
20.0
 49
10.0
 49
-2.5
 49
1.25
 49
-2.5
 49
1.25
 49
-2.5
  0
LTYPE
  2
DOT
 70
    64
  3
-   -   -   -   -   -   -   -   
 72
    65
 73
     2
 40
2.5
 49
0.625
 49
-1.875
  0
LTYPE
  2
DUMMY
 70
    64
  3
ダミー
 72
    65
 73
     0
 40
0.0
  0
LTYPE
  2
RAND1
 70
    64
  3
ランダム線1
 72
    65
 73
     4
 40
10.0
 49
1.0
 49
-2.0
 49
3.0
 49
-4.0
  0
LTYPE
  2
RAND2
 70
    64
  3
ランダム線2
 72
    65
 73
     4
 40
14.0
 49
2.0
 49
-3.0
 49
4.0
 49
-5.0
  0
LTYPE
  2
RAND3
 70
    64
  3
ランダム線3
 72
    65
 73
     4
 40
18.0
 49
3.0
 49
-4.0
 49
5.0
 49
-6.0
  0
LTYPE
  2
RAND4
 70
    64
  3
ランダム線4
 72
    65
 73
     4
 40
22.0
 49
4.0
 49
-5.0
 49
6.0
 49
-7.0
  0
LTYPE
  2
RAND5
 70
    64
  3
ランダム線5
 72
    65
 73
     4
 40
26.0
 49
5.0
 49
-6.0
 49
7.0
 49
-8.0
  0
LTYPE
  2
LONG1
 70
    64
  3
----------  --  ----------  --  
 72
    65
 73
     4
 40
40.0
 49
32.5
 49
-2.5
 49
2.5
 49
-2.5
  0
LTYPE
  2
LONG2
 70
    64
  3
--------  -  -  --------  -  -  
 72
    65
 73
     6
 40
40.0
 49
30.0
 49
-2.5
 49
1.25
 49
-2.5
 49
1.25
 49
-2.5
  0
LTYPE
  2
LONG3
 70
    64
  3
+++++++++++++++..+++++++++++++++
 72
    65
 73
     2
 40
40.0
 49
37.5
 49
-2.5
  0
LTYPE
  2
LONG4
 70
    64
  3
+++++++++++++++..+++++++++++++++
 72
    65
 73
     2
 40
80.0
 49
75.0
 49
-5.0
  0
LTYPE
  2
LONG5
 70
    64
  3
----------  --  ----------  --  
 72
    65
 73
     4
 40
60.0
 49
37.5
 49
-7.5
 49
7.5
 49
-7.5
  0
LTYPE
  2
dashed
 70
   64
  3
-------   -------------   ------
 72
   65
 73
    2
 40
7.5
 49
6
 49
-1.5
  0
LTYPE
  2
dashed_spaced
 70
   64
  3
----        --------        ----
 72
   65
 73
    2
 40
12
 49
6
 49
-6
  0
LTYPE
  2
long_dashed_dotted
 70
   64
  3
------------- --- --------------
 72
   65
 73
    4
 40
15.25
 49
12
 49
-1.5
 49
0.25
 49
-1.5
  0
LTYPE
  2
long_dashed_double-dotted
 70
   64
  3
----------- --- --- ------------
 72
   65
 73
    6
 40
17
 49
12
 49
-1.5
 49
0.25
 49
-1.5
 49
0.25
 49
-1.5
  0
LTYPE
  2
long_dashed_triplicate-dotted
 70
   64
  3
--------- --- --- --- ----------
 72
   65
 73
    8
 40
18.75
 49
12
 49
-1.5
 49
0.25
 49
-1.5
 49
0.25
 49
-1.5
 49
0.25
 49
-1.5
  0
LTYPE
  2
dotted
 70
   64
  3
   -       -       -       -    
 72
   65
 73
    2
 40
1.75
 49
0.25
 49
-1.5
  0
LTYPE
  2
chain
 70
   64
  3
-------------- -- --------------
 72
   65
 73
    4
 40
18.5
 49
12
 49
-1.5
 49
3.5
 49
-1.5
  0
LTYPE
  2
chain_double_dash
 70
   64
  3
------------ -- -- -------------
 72
   65
 73
    6
 40
23.5
 49
12
 49
-1.5
 49
3.5
 49
-1.5
 49
3.5
 49
-1.5
  0
LTYPE
  2
dashed_dotted
 70
   64
  3
-----------     -     ----------
 72
   65
 73
    4
 40
9.25
 49
6
 49
-1.5
 49
0.25
 49
-1.5
  0
LTYPE
  2
double-dashed_dotted
 70
   64
  3
------   -----------   -   -----
 72
   65
 73
    6
 40
16.75
 49
6
 49
-1.5
 49
6
 49
-1.5
 49
0.25
 49
-1.5
  0
LTYPE
  2
dashed_double-dotted
 70
   64
  3
---------    -    -    ---------
 72
   65
 73
    6
 40
11
 49
6
 49
-1.5
 49
0.25
 49
-1.5
 49
0.25
 49
-1.5
  0
LTYPE
  2
double-dashed_double-dotted
 70
   64
  3
-----   ---------   -   -   ----
 72
   65
 73
    8
 40
18.5
 49
6
 49
-1.5
 49
6
 49
-1.5
 49
0.25
 49
-1.5
 49
0.25
 49
-1.5
  0
LTYPE
  2
dashed_triplicate-dotted
 70
   64
  3
-------    -    -    -    ------
 72
   65
 73
    8
 40
12.75
 49
6
 49
-1.5
 49
0.25
 49
-1.5
 49
0.25
 49
-1.5
 49
0.25
 49
-1.5
  0
LTYPE
  2
double-dashed_triplicate-dotted
 70
   64
  3
-----  ---------  -  -  -  -----
 72
   65
 73
   10
 40
20.25
 49
6
 49
-1.5
 49
6
 49
-1.5
 49
0.25
 49
-1.5
 49
0.25
 49
-1.5
 49
0.25
 49
-1.5
  0
LTYPE
  2
undefined
 70
   64
  3
--------------------------------
 72
   65
 73
    0
 40
0
  0
LTYPE
  2
_
 70
   64
  3
                                
 72
   65
 73
    0
 40
0
  0
LTYPE
  2
__18
 70
   64
  3
                                
 72
   65
 73
    0
 40
0
  0
LTYPE
  2
__19
 70
   64
  3
                                
 72
   65
 73
    0
 40
0
  0
LTYPE
  2
__20
 70
   64
  3
                                
 72
   65
 73
    0
 40
0
  0
LTYPE
  2
__21
 70
   64
  3
                                
 72
   65
 73
    0
 40
0
  0
LTYPE
  2
__22
 70
   64
  3
                                
 72
   65
 73
    0
 40
0
  0
LTYPE
  2
__23
 70
   64
  3
                                
 72
   65
 73
    0
 40
0
  0
LTYPE
  2
__24
 70
   64
  3
                                
 72
   65
 73
    0
 40
0
  0
LTYPE
  2
__25
 70
   64
  3
                                
 72
   65
 73
    0
 40
0
  0
LTYPE
  2
__26
 70
   64
  3
                                
 72
   65
 73
    0
 40
0
  0
LTYPE
  2
__27
 70
   64
  3
                                
 72
   65
 73
    0
 40
0
  0
LTYPE
  2
__28
 70
   64
  3
                                
 72
   65
 73
    0
 40
0
  0
LTYPE
  2
__29
 70
   64
  3
                                
 72
   65
 73
    0
 40
0
  0
LTYPE
  2
__30
 70
   64
  3
                                
 72
   65
 73
    0
 40
0
  0
LTYPE
  2
__31
 70
   64
  3
                                
 72
   65
 73
    0
 40
0
  0
LTYPE
  2
__32
 70
   64
  3
                                
 72
   65
 73
    0
 40
0
  0
ENDTAB
  0
TABLE
  2
STYLE
  5
3
100
AcDbSymbolTable
 70
     1
  0
STYLE
  5
10
100
AcDbSymbolTableRecord
100
AcDbTextStyleTableRecord
  2
STANDARD
 70
     0
 40
0.0
 41
1.0
 50
0.0
 71
     0
 42
0.2
  3
txt
  4
bigfont.shx
  0
STYLE
  5
26
100
AcDbSymbolTableRecord
100
AcDbTextStyleTableRecord
  2
TATEGAKI
 70
    68
 40
0.0
 41
1.0
 50
0.0
 71
     0
 42
1.0
  3
txt
  4
bigfont.shx
  0
ENDTAB
  0
TABLE
  2
LAYER
 70
   11
  0
LAYER
  2
_0-0_
 70
   64
 62
    7
  6
CONTINUOUS
  0
LAYER
  2
_0-1_
 70
   64
 62
    7
  6
CONTINUOUS
  0
LAYER
  2
_0-2_
 70
   64
 62
    7
  6
CONTINUOUS
  0
LAYER
  2
_0-3_
 70
   64
 62
    7
  6
CONTINUOUS
  0
LAYER
  2
_0-4_
 70
   64
 62
    7
  6
CONTINUOUS
  0
LAYER
  2
_0-5_
 70
   64
 62
    7
  6
CONTINUOUS
  0
LAYER
  2
_0-7_
 70
   64
 62
    7
  6
CONTINUOUS
  0
LAYER
  2
_0-8_
 70
   64
 62
    7
  6
CONTINUOUS
  0
LAYER
  2
_0-9_
 70
   64
 62
    7
  6
CONTINUOUS
  0
LAYER
  2
_0-f_
 70
   64
 62
    7
  6
CONTINUOUS
  0
LAYER
  2
ADD_LINE
 70
   64
 62
    7
  6
CONTINUOUS
  0
ENDTAB
  0
ENDSEC
  0
SECTION
  2
BLOCKS
  0
ENDSEC
  0
SECTION
  2
ENTITIES
  0
LINE
  8
_0-f_
  6
CONTINUOUS
 62
    3
 10
30
 20
30
 11
1230
 21
30
  0
LINE
  8
_0-f_
  6
CONTINUOUS
 62
    3
 10
1230
 20
30
 11
1230
 21
861
  0
LINE
  8
_0-f_
  6
CONTINUOUS
 62
    3
 10
1230
 20
861
 11
30
 21
861
  0
LINE
  8
_0-f_
  6
CONTINUOUS
 62
    3
 10
30
 20
861
 11
30
 21
30
  0
LINE
  8
_0-f_
  6
CONTINUOUS
 62
    7
 10
660
 20
57
 11
1230
 21
57
  0
LINE
  8
_0-f_
  6
CONTINUOUS
 62
    7
 10
660
 20
111
 11
1230
 21
111
  0
LINE
  8
_0-f_
  6
CONTINUOUS
 62
    7
 10
660
 20
30
 11
660
 21
138
  0
LINE
  8
_0-f_
  6
CONTINUOUS
 62
    7
 10
660
 20
138
 11
1230
 21
138
  0
LINE
  8
_0-f_
  6
CONTINUOUS
 62
    7
 10
1179
 20
30
 11
1179
 21
57
  0
LINE
  8
_0-f_
  6
CONTINUOUS
 62
    7
 10
945
 20
57
 11
945
 21
138
  0
LINE
  8
_0-f_
  6
CONTINUOUS
 62
    7
 10
1155
 20
84
 11
1155
 21
138
  0
LINE
  8
_0-f_
  6
CONTINUOUS
 62
    7
 10
780
 20
57
 11
780
 21
111
  0
LINE
  8
_0-f_
  6
CONTINUOUS
 62
    7
 10
720
 20
57
 11
720
 21
111
  0
LINE
  8
_0-f_
  6
CONTINUOUS
 62
    7
 10
840
 20
84
 11
1230
 21
84
  0
LINE
  8
_0-f_
  6
CONTINUOUS
 62
    7
 10
840
 20
30
 11
840
 21
111
  0
TEXT
  8
_0-f_
 62
    7
 10
663
 20
126
 40
9
 41
0.6666666666666666
 50
0
  1
注
  0
TEXT
  8
_0-f_
 62
    7
 10
948
 20
126
 40
9
 41
0.6666666666666666
 50
0
  1
材質　MATERIAL
  0
POINT
  8
_0-f_
 62
    9
 10
681
 20
112.5
  0
POINT
  8
_0-f_
 62
    9
 10
972
 20
112.5
  0
POINT
  8
_0-f_
 62
    9
 10
948
 20
126
  0
TEXT
  8
_0-f_
 62
    7
 10
1158
 20
126
 40
9
 41
0.6666666666666666
 50
0
  1
個数　QUANTITY
  0
TEXT
  8
_0-f_
 62
    7
 10
663
 20
99
 40
9
 41
0.6666666666666666
 50
0
  1
APPROVED
  0
TEXT
  8
_0-f_
 62
    7
 10
723
 20
99
 40
9
 41
0.6666666666666666
 50
0
  1
CHECKED
  0
TEXT
  8
_0-f_
 62
    7
 10
783
 20
99
 40
9
 41
0.6666666666666666
 50
0
  1
DESIGNER
  0
TEXT
  8
_0-f_
 62
    7
 10
843
 20
99
 40
9
 41
0.6666666666666666
 50
0
  1
図面サイズ　SIZU
  0
TEXT
  8
_0-f_
 62
    7
 10
843
 20
72
 40
9
 41
0.6666666666666666
 50
0
  1
日付　DATE
  0
TEXT
  8
_0-f_
 62
    7
 10
948
 20
99
 40
9
 41
0.6666666666666666
 50
0
  1
表面処理　SURFACE TREATMENT
  0
TEXT
  8
_0-f_
 62
    7
 10
1158
 20
99
 40
9
 41
0.6666666666666666
 50
0
  1
尺度　SCALE
  0
TEXT
  8
_0-f_
 62
    7
 10
843
 20
43.5
 40
10.5
 41
0.7142857142857143
 50
0
  1
図　　番
  0
TEXT
  8
_0-f_
 62
    7
 10
880.5
 20
48
 40
6
 41
1
 50
0
  1
DRAWING No
  0
TEXT
  8
_0-f_
 62
    7
 10
972
 20
112.5
 40
10.5
 41
1
 50
0
  1
別記
  0
TEXT
  8
_0-f_
 62
    7
 10
957
 20
85.5
 40
10.5
 41
1
 50
0
  1
別記
  0
TEXT
  8
_0-f_
 62
    7
 10
1173
 20
112.5
 40
10.5
 41
1
 50
0
  1
別記
  0
TEXT
  8
_0-f_
 62
    7
 10
1182
 20
45
 40
9
 41
0.6666666666666666
 50
0
  1
ユニット
  0
TEXT
  8
_0-f_
 62
    7
 10
795
 20
58.5
 40
15
 41
1
 50
0
  1
玉置
  0
TEXT
  8
_0-f_
 62
    7
 10
717
 20
34.5
 40
18
 41
0.8333333333333333
 50
0
  1
株式会社アウス
  0
POINT
  8
_0-f_
 62
    9
 10
690
 20
58.5
  0
POINT
  8
_0-f_
 62
    9
 10
750
 20
58.5
  0
POINT
  8
_0-f_
 62
    9
 10
810
 20
58.5
  0
POINT
  8
_0-f_
 62
    9
 10
663
 20
99
  0
POINT
  8
_0-f_
 62
    9
 10
723
 20
99
  0
POINT
  8
_0-f_
 62
    9
 10
783
 20
99
  0
POINT
  8
_0-f_
 62
    9
 10
843
 20
99
  0
POINT
  8
_0-f_
 62
    9
 10
948
 20
99
  0
POINT
  8
_0-f_
 62
    9
 10
957
 20
85.5
  0
POINT
  8
_0-f_
 62
    9
 10
843
 20
43.5
  0
POINT
  8
_0-f_
 62
    9
 10
717
 20
34.5
  0
POINT
  8
_0-f_
 62
    9
 10
957
 20
31.5
  0
POINT
  8
_0-f_
 62
    9
 10
957
 20
58.5
  0
POINT
  8
_0-f_
 62
    9
 10
1164
 20
85.5
  0
POINT
  8
_0-f_
 62
    9
 10
1158
 20
99
  0
POINT
  8
_0-f_
 62
    9
 10
1158
 20
126
  0
POINT
  8
_0-f_
 62
    9
 10
1173
 20
112.5
  0
POINT
  8
_0-f_
 62
    9
 10
1194
 20
31.5
  0
POINT
  8
_0-f_
 62
    9
 10
1182
 20
45
  0
POINT
  8
_0-f_
 62
    9
 10
843
 20
72
  0
POINT
  8
_0-f_
 62
    9
 10
892.5
 20
85.5
  0
POINT
  8
_0-f_
 62
    9
 10
892.5
 20
58.5
  0
TEXT
  8
_0-f_
 62
    7
 10
948
 20
73.5
 40
9
 41
0.6666666666666666
 50
0
  1
図面名　TITLE
  0
POINT
  8
_0-f_
 62
    9
 10
948
 20
73.5
  0
TEXT
  8
_0-f_
 62
    7
 10
681
 20
112.5
 40
10.5
 41
1
 50
0
  1
　
  0
TEXT
  8
_0-f_
 62
    7
 10
882
 20
85.5
 40
10.5
 41
1
 50
0
  1
Ａ３
  0
POINT
  8
_0-0_
 62
    2
 10
532
 20
588
  0
LINE
  8
_0-0_
  6
CONTINUOUS
 62
    7
 10
573
 20
676.17136103677467
 11
579.36396103067887
 21
682.53532206745354
  0
LINE
  8
_0-0_
  6
CONTINUOUS
 62
    7
 10
573
 20
676.17136103677467
 11
581.69333243660162
 21
678.50073244269731
  0
LINE
  8
_0-0_
  6
CONTINUOUS
 62
    7
 10
570.99999135785401
 20
484.00002322576745
 11
577.36395238853288
 21
490.36398425644643
  0
LINE
  8
_0-0_
  6
CONTINUOUS
 62
    7
 10
570.99999135785401
 20
484.00002322576745
 11
579.69332379445564
 21
486.32939463169015
  0
CIRCLE
  8
_0-0_
  6
CONTINUOUS
 62
    7
 10
603
 20
693.49186911246352
 40
9
  0
CIRCLE
  8
_0-0_
  6
CONTINUOUS
 62
    7
 10
603
 20
628.99186911246341
 40
9
  0
CIRCLE
  8
_0-0_
  6
CONTINUOUS
 62
    7
 10
603
 20
502.47523682938083
 40
9
  0
TEXT
  8
_0-0_
 62
    7
 10
595.5
 20
685.99186911246352
 40
15
 41
1
 50
0
  1
１
  0
TEXT
  8
_0-0_
 62
    7
 10
595.5
 20
621.49186911246341
 40
15
 41
1
 50
0
  1
２
  0
TEXT
  8
_0-0_
 62
    7
 10
595.5
 20
494.97523682938083
 40
15
 41
1
 50
0
  1
７
  0
LINE
  8
_0-0_
  6
CONTINUOUS
 62
    7
 10
573
 20
676.17136103677467
 11
595.20577136594011
 21
688.99186911246352
  0
LINE
  8
_0-0_
  6
CONTINUOUS
 62
    7
 10
532
 20
588
 11
595.20577136594011
 21
624.49186911246352
  0
LINE
  8
_0-0_
  6
CONTINUOUS
 62
    7
 10
570.99999135785401
 20
484.00002322576745
 11
595.20577136594011
 21
497.97523682938083
  0
LINE
  8
_0-1_
  6
CONTINUOUS
 62
    7
 10
142.99999999999997
 20
718
 11
142.99999999999997
 21
458.00000000000006
  0
LINE
  8
_0-1_
  6
CONTINUOUS
 62
    7
 10
123
 20
738
 11
123
 21
438
  0
LINE
  8
_0-1_
  6
CONTINUOUS
 62
    7
 10
142.99999999999997
 20
458.00000000000006
 11
553
 21
458.00000000000006
  0
LINE
  8
_0-1_
  6
CONTINUOUS
 62
    7
 10
123
 20
438
 11
573
 21
438
  0
LINE
  8
_0-1_
  6
CONTINUOUS
 62
    7
 10
553
 20
718
 11
553
 21
458.00000000000006
  0
LINE
  8
_0-1_
  6
CONTINUOUS
 62
    7
 10
142.99999999999997
 20
718
 11
553
 21
718
  0
LINE
  8
_0-1_
  6
CONTINUOUS
 62
    7
 10
123
 20
738
 11
573
 21
738
  0
LINE
  8
_0-1_
  6
CONTINUOUS
 62
    7
 10
573
 20
738
 11
573
 21
438
  0
LINE
  8
_0-2_
  6
CONTINUOUS
 62
    7
 10
144
 20
717
 11
144
 21
459
  0
LINE
  8
_0-2_
  6
CONTINUOUS
 62
    7
 10
144
 20
459
 11
552
 21
459
  0
LINE
  8
_0-2_
  6
CONTINUOUS
 62
    7
 10
552
 20
717
 11
552
 21
459
  0
LINE
  8
_0-2_
  6
CONTINUOUS
 62
    7
 10
144
 20
717
 11
552
 21
717
  0
LINE
  8
_0-3_
  6
CONTINUOUS
 62
    7
 10
412.99998649664678
 20
703.9999978394635
 11
412.99998649664678
 21
619.00003024751106
  0
LINE
  8
_0-3_
  6
CONTINUOUS
 62
    7
 10
283.00000270067062
 20
619.00003024751106
 11
412.99998649664678
 21
619.00003024751106
  0
ARC
  8
_0-3_
  6
CONTINUOUS
 62
    7
 10
388.49999405852446
 20
643.99997623409854
 40
4.9999998312080853
 50
270
 51
0
  0
LINE
  8
_0-3_
  6
CONTINUOUS
 62
    7
 10
307.49999513879277
 20
638.99998703678102
 11
388.49999405852446
 21
638.99998703678102
  0
LINE
  8
_0-3_
  6
CONTINUOUS
 62
    7
 10
393.49998325584204
 20
669.99998055517153
 11
393.49998325584204
 21
643.99997623409854
  0
ARC
  8
_0-3_
  6
CONTINUOUS
 62
    7
 10
388.49999405852446
 20
669.99998055517153
 40
4.9999998312080853
 50
0
 51
89.999969482421875
  0
LINE
  8
_0-3_
  6
CONTINUOUS
 62
    7
 10
307.49999513879277
 20
674.99996975248882
 11
388.49999405852446
 21
674.99996975248882
  0
ARC
  8
_0-3_
  6
CONTINUOUS
 62
    7
 10
307.49999513879277
 20
669.99998055517153
 40
4.9999998312080853
 50
89.999969482421875
 51
180.00001525878903
  0
LINE
  8
_0-3_
  6
CONTINUOUS
 62
    7
 10
302.50000594147537
 20
669.99998055517153
 11
302.50000594147537
 21
643.99997623409854
  0
ARC
  8
_0-3_
  6
CONTINUOUS
 62
    7
 10
307.49999513879277
 20
643.99997623409854
 40
4.9999998312080853
 50
180.00001525878906
 51
270
  0
LINE
  8
_0-3_
  6
CONTINUOUS
 62
    7
 10
283.00000270067062
 20
703.9999978394635
 11
283.00000270067062
 21
619.00003024751106
  0
LINE
  8
_0-3_
  6
CONTINUOUS
 62
    7
 10
412.99998649664678
 20
703.9999978394635
 11
283.00000270067062
 21
703.9999978394635
  0
LINE
  8
_0-3_
  6
CONTINUOUS
 62
    7
 10
663.00002592643796
 20
703.99997191302543
 11
663.00002592643796
 21
619.00000432107299
  0
LINE
  8
_0-3_
  6
CONTINUOUS
 62
    7
 10
663.00002592643796
 20
703.99997191302543
 11
660.99998487624441
 21
702.00000648160972
  0
LINE
  8
_0-3_
  6
CONTINUOUS
 62
    7
 10
660.99998487624441
 20
620.99996975248894
 11
660.99998487624441
 21
702.00000648160972
  0
LINE
  8
_0-3_
  6
CONTINUOUS
 62
    7
 10
660.99998487624441
 20
620.99996975248894
 11
663.00002592643796
 21
619.00000432107299
  0
LINE
  8
_0-5_
  6
DASHED2
 62
    4
 10
194.99997191302546
 20
678.99996111034307
 11
194.99997191302546
 21
659.00000432107299
  0
LINE
  8
_0-5_
  6
DASHED2
 62
    4
 10
191.99994814712383
 20
678.99996111034307
 11
191.99994814712383
 21
659.00000432107299
  0
LINE
  8
_0-5_
  6
DASHED2
 62
    4
 10
185.99997623409845
 20
678.99996111034307
 11
185.99997623409845
 21
659.00000432107299
  0
LINE
  8
_0-5_
  6
DASHED2
 62
    4
 10
182.99995246819691
 20
678.99996111034307
 11
182.99995246819691
 21
659.00000432107299
  0
ARC
  8
_0-5_
  6
DASHED2
 62
    4
 10
188.99996219061114
 20
657.49995462873335
 40
1.5000000675167655
 50
0
 51
89.999969482421875
  0
ARC
  8
_0-5_
  6
DASHED2
 62
    4
 10
188.99996219061114
 20
657.49995462873335
 40
1.5000000675167655
 50
89.999969482421875
 51
180.00001525878903
  0
ARC
  8
_0-5_
  6
DASHED2
 62
    4
 10
188.99996219061114
 20
659.00000432107299
 40
6.000000270067062
 50
284.47749328613281
 51
0.0000000000000254
  0
ARC
  8
_0-5_
  6
DASHED2
 62
    4
 10
188.99996219061114
 20
659.00000432107299
 40
3.000000135033531
 50
299.78858947753906
 51
0
  0
ARC
  8
_0-5_
  6
DASHED2
 62
    4
 10
188.99996219061114
 20
659.00000432107299
 40
3.000000135033531
 50
180.00001525878906
 51
240.42987060546875
  0
ARC
  8
_0-5_
  6
DASHED2
 62
    4
 10
188.99996219061114
 20
659.00000432107299
 40
6.000000270067062
 50
180.00001525878906
 51
255.39689636230469
  0
ARC
  8
_0-5_
  6
DASHED2
 62
    4
 10
188.99996219061114
 20
678.99996111034307
 40
3.000000135033531
 50
0
 51
60.211380004882805
  0
ARC
  8
_0-5_
  6
DASHED2
 62
    4
 10
188.99996219061114
 20
678.99996111034307
 40
3.000000135033531
 50
119.57009887695312
 51
180.00001525878903
  0
ARC
  8
_0-5_
  6
DASHED2
 62
    4
 10
188.99996219061114
 20
680.50001080268248
 40
1.5000000675167655
 50
270
 51
0
  0
ARC
  8
_0-5_
  6
DASHED2
 62
    4
 10
188.99996219061114
 20
680.50001080268248
 40
1.5000000675167655
 50
180.00001525878906
 51
270
  0
LINE
  8
_0-5_
  6
DASHED2
 62
    4
 10
190.49997407356196
 20
657.49995462873335
 11
190.49997407356196
 21
628.5000021605365
  0
LINE
  8
_0-5_
  6
DASHED2
 62
    4
 10
187.49995030766041
 20
657.49995462873335
 11
187.49995030766041
 21
628.5000021605365
  0
ARC
  8
_0-5_
  6
DASHED2
 62
    4
 10
188.99996219061114
 20
628.5000021605365
 40
1.5000000675167655
 50
180.00001525878906
 51
270
  0
ARC
  8
_0-5_
  6
DASHED2
 62
    4
 10
188.99996219061114
 20
628.5000021605365
 40
1.5000000675167655
 50
270
 51
0
  0
ARC
  8
_0-5_
  6
DASHED2
 62
    4
 10
188.99996219061114
 20
678.99996111034307
 40
6.000000270067062
 50
0
 51
75.522476196289063
  0
LINE
  8
_0-5_
  6
DASHED2
 62
    4
 10
190.49997407356196
 20
689.50000648160949
 11
190.49997407356196
 21
680.50001080268248
  0
LINE
  8
_0-5_
  6
DASHED2
 62
    4
 10
187.49995030766041
 20
689.50000648160949
 11
187.49995030766041
 21
680.50001080268248
  0
ARC
  8
_0-5_
  6
DASHED2
 62
    4
 10
188.99996219061114
 20
678.99996111034307
 40
6.000000270067062
 50
104.60311889648437
 51
180.00001525878906
  0
ARC
  8
_0-5_
  6
DASHED2
 62
    4
 10
188.99996219061114
 20
689.50000648160949
 40
1.5000000675167655
 50
89.999969482421875
 51
180.00001525878903
  0
ARC
  8
_0-5_
  6
DASHED2
 62
    4
 10
188.99996219061114
 20
689.50000648160949
 40
1.5000000675167655
 50
0
 51
89.999969482421875
  0
LINE
  8
_0-7_
  6
DASHED2
 62
    4
 10
126.00001026254836
 20
488.00001080268254
 11
126.00001026254836
 21
482.00000108026831
  0
LINE
  8
_0-7_
  6
DASHED2
 62
    4
 10
570.99999135785401
 20
487.00002808697457
 11
570.99999135785401
 21
481.00001836456033
  0
LINE
  8
_0-8_
  6
CONTINUOUS
 62
    7
 10
403.49999105777943
 20
696.50003504870347
 11
402.50000834207145
 21
696.50003504870347
  0
LINE
  8
_0-8_
  6
CONTINUOUS
 62
    7
 10
400.50004291065551
 20
694.50003180789861
 11
400.50004291065551
 21
693.50001128280178
  0
LINE
  8
_0-8_
  6
CONTINUOUS
 62
    7
 10
402.50000834207145
 20
691.50000804199703
 11
403.49999105777943
 21
691.50000804199703
  0
LINE
  8
_0-8_
  6
CONTINUOUS
 62
    7
 10
405.50003210797308
 20
693.50001128280178
 11
405.50003210797308
 21
694.50003180789861
  0
LINE
  8
_0-8_
  6
CONTINUOUS
 62
    7
 10
403.49999105777943
 20
695.50001452360652
 11
403.49999105777943
 21
696.50003504870347
  0
LINE
  8
_0-8_
  6
CONTINUOUS
 62
    7
 10
404.4999737734874
 20
694.50003180789861
 11
405.50003210797308
 21
694.50003180789861
  0
LINE
  8
_0-8_
  6
CONTINUOUS
 62
    7
 10
404.4999737734874
 20
693.50001128280178
 11
405.50003210797308
 21
693.50001128280178
  0
LINE
  8
_0-8_
  6
CONTINUOUS
 62
    7
 10
403.49999105777943
 20
692.50002856709375
 11
403.49999105777943
 21
691.50000804199703
  0
LINE
  8
_0-8_
  6
CONTINUOUS
 62
    7
 10
402.50000834207145
 20
692.50002856709375
 11
402.50000834207145
 21
691.50000804199703
  0
LINE
  8
_0-8_
  6
CONTINUOUS
 62
    7
 10
401.50002562636359
 20
693.50001128280178
 11
400.50004291065551
 21
693.50001128280178
  0
LINE
  8
_0-8_
  6
CONTINUOUS
 62
    7
 10
401.50002562636359
 20
694.50003180789861
 11
400.50004291065551
 21
694.50003180789861
  0
LINE
  8
_0-8_
  6
CONTINUOUS
 62
    7
 10
402.50000834207145
 20
695.50001452360652
 11
402.50000834207145
 21
696.50003504870347
  0
CIRCLE
  8
_0-8_
  6
CONTINUOUS
 62
    7
 10
402.99999969992552
 20
694.00000264065579
 40
3.9999999831208077
  0
ARC
  8
_0-8_
  6
CONTINUOUS
 62
    7
 10
404.4999737734874
 20
695.50001452360652
 40
0.9999999957802019
 50
180.00001525878906
 51
270
  0
ARC
  8
_0-8_
  6
CONTINUOUS
 62
    7
 10
404.4999737734874
 20
692.50002856709375
 40
0.9999999957802019
 50
89.999969482421875
 51
180.00001525878903
  0
ARC
  8
_0-8_
  6
CONTINUOUS
 62
    7
 10
401.50002562636359
 20
692.50002856709375
 40
0.9999999957802019
 50
0
 51
89.999969482421875
  0
ARC
  8
_0-8_
  6
CONTINUOUS
 62
    7
 10
401.50002562636359
 20
695.50001452360652
 40
0.9999999957802019
 50
270
 51
0
  0
CIRCLE
  8
_0-8_
  6
CONTINUOUS
 62
    7
 10
402.99999969992552
 20
694.00000264065579
 40
3.9999999831208077
  0
LINE
  8
_0-8_
  6
CONTINUOUS
 62
    7
 10
403.49999105777943
 20
631.50002424602087
 11
402.50000834207145
 21
631.50002424602087
  0
LINE
  8
_0-8_
  6
CONTINUOUS
 62
    7
 10
400.50004291065551
 20
629.50002100521613
 11
400.50004291065551
 21
628.5000004801193
  0
LINE
  8
_0-8_
  6
CONTINUOUS
 62
    7
 10
402.50000834207145
 20
626.49999723931455
 11
403.49999105777943
 21
626.49999723931455
  0
LINE
  8
_0-8_
  6
CONTINUOUS
 62
    7
 10
405.50003210797308
 20
628.5000004801193
 11
405.50003210797308
 21
629.50002100521613
  0
LINE
  8
_0-8_
  6
CONTINUOUS
 62
    7
 10
403.49999105777943
 20
630.50000372092416
 11
403.49999105777943
 21
631.50002424602087
  0
LINE
  8
_0-8_
  6
CONTINUOUS
 62
    7
 10
404.4999737734874
 20
629.50002100521613
 11
405.50003210797308
 21
629.50002100521613
  0
LINE
  8
_0-8_
  6
CONTINUOUS
 62
    7
 10
404.4999737734874
 20
628.5000004801193
 11
405.50003210797308
 21
628.5000004801193
  0
LINE
  8
_0-8_
  6
CONTINUOUS
 62
    7
 10
403.49999105777943
 20
627.50001776441138
 11
403.49999105777943
 21
626.49999723931455
  0
LINE
  8
_0-8_
  6
CONTINUOUS
 62
    7
 10
402.50000834207145
 20
627.50001776441138
 11
402.50000834207145
 21
626.49999723931455
  0
LINE
  8
_0-8_
  6
CONTINUOUS
 62
    7
 10
401.50002562636359
 20
628.5000004801193
 11
400.50004291065551
 21
628.5000004801193
  0
LINE
  8
_0-8_
  6
CONTINUOUS
 62
    7
 10
401.50002562636359
 20
629.50002100521613
 11
400.50004291065551
 21
629.50002100521613
  0
LINE
  8
_0-8_
  6
CONTINUOUS
 62
    7
 10
402.50000834207145
 20
630.50000372092416
 11
402.50000834207145
 21
631.50002424602087
  0
CIRCLE
  8
_0-8_
  6
CONTINUOUS
 62
    7
 10
402.99999969992552
 20
628.99999183797331
 40
3.9999999831208077
  0
ARC
  8
_0-8_
  6
CONTINUOUS
 62
    7
 10
404.4999737734874
 20
630.50000372092416
 40
0.9999999957802019
 50
180.00001525878906
 51
270
  0
ARC
  8
_0-8_
  6
CONTINUOUS
 62
    7
 10
404.4999737734874
 20
627.50001776441138
 40
0.9999999957802019
 50
89.999969482421875
 51
180.00001525878903
  0
ARC
  8
_0-8_
  6
CONTINUOUS
 62
    7
 10
401.50002562636359
 20
627.50001776441138
 40
0.9999999957802019
 50
0
 51
89.999969482421875
  0
ARC
  8
_0-8_
  6
CONTINUOUS
 62
    7
 10
401.50002562636359
 20
630.50000372092416
 40
0.9999999957802019
 50
270
 51
0
  0
CIRCLE
  8
_0-8_
  6
CONTINUOUS
 62
    7
 10
402.99999969992552
 20
628.99999183797331
 40
3.9999999831208077
  0
LINE
  8
_0-8_
  6
CONTINUOUS
 62
    7
 10
293.50000186046191
 20
631.50002424602087
 11
292.50001914475399
 21
631.50002424602087
  0
LINE
  8
_0-8_
  6
CONTINUOUS
 62
    7
 10
290.50005371333805
 20
629.50002100521613
 11
290.50005371333805
 21
628.5000004801193
  0
LINE
  8
_0-8_
  6
CONTINUOUS
 62
    7
 10
292.50001914475399
 20
626.49999723931455
 11
293.50000186046191
 21
626.49999723931455
  0
LINE
  8
_0-8_
  6
CONTINUOUS
 62
    7
 10
295.50004291065557
 20
628.5000004801193
 11
295.50004291065557
 21
629.50002100521613
  0
LINE
  8
_0-8_
  6
CONTINUOUS
 62
    7
 10
293.50000186046191
 20
630.50000372092416
 11
293.50000186046191
 21
631.50002424602087
  0
LINE
  8
_0-8_
  6
CONTINUOUS
 62
    7
 10
294.49998457616994
 20
629.50002100521613
 11
295.50004291065557
 21
629.50002100521613
  0
LINE
  8
_0-8_
  6
CONTINUOUS
 62
    7
 10
294.49998457616994
 20
628.5000004801193
 11
295.50004291065557
 21
628.5000004801193
  0
LINE
  8
_0-8_
  6
CONTINUOUS
 62
    7
 10
293.50000186046191
 20
627.50001776441138
 11
293.50000186046191
 21
626.49999723931455
  0
LINE
  8
_0-8_
  6
CONTINUOUS
 62
    7
 10
292.50001914475399
 20
627.50001776441138
 11
292.50001914475399
 21
626.49999723931455
  0
LINE
  8
_0-8_
  6
CONTINUOUS
 62
    7
 10
291.50003642904608
 20
628.5000004801193
 11
290.50005371333805
 21
628.5000004801193
  0
LINE
  8
_0-8_
  6
CONTINUOUS
 62
    7
 10
291.50003642904608
 20
629.50002100521613
 11
290.50005371333805
 21
629.50002100521613
  0
LINE
  8
_0-8_
  6
CONTINUOUS
 62
    7
 10
292.50001914475399
 20
630.50000372092416
 11
292.50001914475399
 21
631.50002424602087
  0
CIRCLE
  8
_0-8_
  6
CONTINUOUS
 62
    7
 10
293.00001050260801
 20
628.99999183797331
 40
3.9999999831208077
  0
ARC
  8
_0-8_
  6
CONTINUOUS
 62
    7
 10
294.49998457616994
 20
630.50000372092416
 40
0.9999999957802019
 50
180.00001525878906
 51
270
  0
ARC
  8
_0-8_
  6
CONTINUOUS
 62
    7
 10
294.49998457616994
 20
627.50001776441138
 40
0.9999999957802019
 50
89.999969482421875
 51
180.00001525878903
  0
ARC
  8
_0-8_
  6
CONTINUOUS
 62
    7
 10
291.50003642904608
 20
627.50001776441138
 40
0.9999999957802019
 50
0
 51
89.999969482421875
  0
ARC
  8
_0-8_
  6
CONTINUOUS
 62
    7
 10
291.50003642904608
 20
630.50000372092416
 40
0.9999999957802019
 50
270
 51
0
  0
CIRCLE
  8
_0-8_
  6
CONTINUOUS
 62
    7
 10
293.00001050260801
 20
628.99999183797331
 40
3.9999999831208077
  0
LINE
  8
_0-8_
  6
CONTINUOUS
 62
    7
 10
293.50000186046191
 20
696.50003504870347
 11
292.50001914475399
 21
696.50003504870347
  0
LINE
  8
_0-8_
  6
CONTINUOUS
 62
    7
 10
290.50005371333805
 20
694.50003180789861
 11
290.50005371333805
 21
693.50001128280178
  0
LINE
  8
_0-8_
  6
CONTINUOUS
 62
    7
 10
292.50001914475399
 20
691.50000804199703
 11
293.50000186046191
 21
691.50000804199703
  0
LINE
  8
_0-8_
  6
CONTINUOUS
 62
    7
 10
295.50004291065557
 20
693.50001128280178
 11
295.50004291065557
 21
694.50003180789861
  0
LINE
  8
_0-8_
  6
CONTINUOUS
 62
    7
 10
293.50000186046191
 20
695.50001452360652
 11
293.50000186046191
 21
696.50003504870347
  0
LINE
  8
_0-8_
  6
CONTINUOUS
 62
    7
 10
294.49998457616994
 20
694.50003180789861
 11
295.50004291065557
 21
694.50003180789861
  0
LINE
  8
_0-8_
  6
CONTINUOUS
 62
    7
 10
294.49998457616994
 20
693.50001128280178
 11
295.50004291065557
 21
693.50001128280178
  0
LINE
  8
_0-8_
  6
CONTINUOUS
 62
    7
 10
293.50000186046191
 20
692.50002856709375
 11
293.50000186046191
 21
691.50000804199703
  0
LINE
  8
_0-8_
  6
CONTINUOUS
 62
    7
 10
292.50001914475399
 20
692.50002856709375
 11
292.50001914475399
 21
691.50000804199703
  0
LINE
  8
_0-8_
  6
CONTINUOUS
 62
    7
 10
291.50003642904608
 20
693.50001128280178
 11
290.50005371333805
 21
693.50001128280178
  0
LINE
  8
_0-8_
  6
CONTINUOUS
 62
    7
 10
291.50003642904608
 20
694.50003180789861
 11
290.50005371333805
 21
694.50003180789861
  0
LINE
  8
_0-8_
  6
CONTINUOUS
 62
    7
 10
292.50001914475399
 20
695.50001452360652
 11
292.50001914475399
 21
696.50003504870347
  0
CIRCLE
  8
_0-8_
  6
CONTINUOUS
 62
    7
 10
293.00001050260801
 20
694.00000264065579
 40
3.9999999831208077
  0
ARC
  8
_0-8_
  6
CONTINUOUS
 62
    7
 10
294.49998457616994
 20
695.50001452360652
 40
0.9999999957802019
 50
180.00001525878906
 51
270
  0
ARC
  8
_0-8_
  6
CONTINUOUS
 62
    7
 10
294.49998457616994
 20
692.50002856709375
 40
0.9999999957802019
 50
89.999969482421875
 51
180.00001525878903
  0
ARC
  8
_0-8_
  6
CONTINUOUS
 62
    7
 10
291.50003642904608
 20
692.50002856709375
 40
0.9999999957802019
 50
0
 51
89.999969482421875
  0
ARC
  8
_0-8_
  6
CONTINUOUS
 62
    7
 10
291.50003642904608
 20
695.50001452360652
 40
0.9999999957802019
 50
270
 51
0
  0
CIRCLE
  8
_0-8_
  6
CONTINUOUS
 62
    7
 10
293.00001050260801
 20
694.00000264065579
 40
3.9999999831208077
  0
LINE
  8
_0-4_
  6
DASHED2
 62
    4
 10
382.5
 20
706
 11
313.50000000000006
 21
706
  0
ARC
  8
_0-4_
  6
DASHED2
 62
    4
 10
313.50000000000006
 20
705.5
 40
0.5
 50
90
 51
180
  0
LINE
  8
_0-4_
  6
DASHED2
 62
    4
 10
313
 20
705.5
 11
313
 21
702.5
  0
ARC
  8
_0-4_
  6
DASHED2
 62
    4
 10
313.50000000000006
 20
702.5
 40
0.5
 50
180
 51
270
  0
LINE
  8
_0-4_
  6
DASHED2
 62
    4
 10
323.00000000000006
 20
702
 11
313.50000000000006
 21
702
  0
LINE
  8
_0-4_
  6
DASHED2
 62
    4
 10
323.00000000000006
 20
702
 11
323.00000000000006
 21
689
  0
LINE
  8
_0-4_
  6
DASHED2
 62
    4
 10
341.00000000000006
 20
689
 11
323.00000000000006
 21
689
  0
LINE
  8
_0-4_
  6
DASHED2
 62
    4
 10
341.00000000000006
 20
702
 11
341.00000000000006
 21
689
  0
LINE
  8
_0-4_
  6
DASHED2
 62
    4
 10
355
 20
702
 11
341.00000000000006
 21
702
  0
LINE
  8
_0-4_
  6
DASHED2
 62
    4
 10
355
 20
689
 11
355
 21
702
  0
LINE
  8
_0-4_
  6
DASHED2
 62
    4
 10
373
 20
689
 11
355
 21
689
  0
LINE
  8
_0-4_
  6
DASHED2
 62
    4
 10
373
 20
689
 11
373
 21
702
  0
LINE
  8
_0-4_
  6
DASHED2
 62
    4
 10
382.5
 20
702
 11
373
 21
702
  0
ARC
  8
_0-4_
  6
DASHED2
 62
    4
 10
382.5
 20
702.5
 40
0.5
 50
270
 51
0
  0
LINE
  8
_0-4_
  6
DASHED2
 62
    4
 10
383
 20
702.5
 11
383
 21
705.5
  0
ARC
  8
_0-4_
  6
DASHED2
 62
    4
 10
382.5
 20
705.5
 40
0.5
 50
0
 51
90
  0
ARC
  8
_0-4_
  6
DASHED2
 62
    4
 10
340.00000000000006
 20
695.5
 40
3.4999999999999996
 50
286.60154999999997
 51
328.99728086612595
  0
ARC
  8
_0-4_
  6
DASHED2
 62
    4
 10
340.00000000000006
 20
695.5
 40
3.4999999999999996
 50
31.002719133874031
 51
73.398450000000011
  0
ARC
  8
_0-4_
  6
DASHED2
 62
    4
 10
356
 20
695.5
 40
3.4999999999999996
 50
106.60155
 51
148.99728086612598
  0
ARC
  8
_0-4_
  6
DASHED2
 62
    4
 10
356
 20
695.5
 40
3.4999999999999996
 50
211.00271913387405
 51
253.39845
  0
LINE
  8
_0-4_
  6
DASHED2
 62
    4
 10
341.00000000000006
 20
690.5
 11
355
 21
690.5
  0
LINE
  8
_0-4_
  6
DASHED2
 62
    4
 10
353
 20
700.5
 11
353
 21
690.5
  0
LINE
  8
_0-4_
  6
DASHED2
 62
    4
 10
341.00000000000006
 20
700.5
 11
355
 21
700.5
  0
LINE
  8
_0-4_
  6
DASHED2
 62
    4
 10
343.00000000000006
 20
700.5
 11
343.00000000000006
 21
690.5
  0
CIRCLE
  8
_0-4_
  6
DASHED2
 62
    4
 10
363
 20
695.5
 40
4
  0
CIRCLE
  8
_0-4_
  6
DASHED2
 62
    4
 10
333.00000000000006
 20
695.5
 40
4
  0
LINE
  8
_0-4_
  6
DASHED2
 62
    4
 10
341.00000000000006
 20
700.5
 11
327.00000000000006
 21
700.5
  0
LINE
  8
_0-4_
  6
DASHED2
 62
    4
 10
327.00000000000006
 20
690.5
 11
327.00000000000006
 21
700.5
  0
LINE
  8
_0-4_
  6
DASHED2
 62
    4
 10
341.00000000000006
 20
690.5
 11
327.00000000000006
 21
690.5
  0
LINE
  8
_0-4_
  6
DASHED2
 62
    4
 10
355
 20
690.5
 11
369
 21
690.5
  0
LINE
  8
_0-4_
  6
DASHED2
 62
    4
 10
369
 20
690.5
 11
369
 21
700.5
  0
LINE
  8
_0-4_
  6
DASHED2
 62
    4
 10
355
 20
700.5
 11
369
 21
700.5
  0
CIRCLE
  8
_0-4_
  6
DASHED2
 62
    4
 10
363
 20
695.5
 40
2
  0
CIRCLE
  8
_0-4_
  6
DASHED2
 62
    4
 10
333.00000000000006
 20
695.5
 40
2
  0
LINE
  8
_0-1_
  6
CONTINUOUS
 62
    7
 10
663
 20
438
 11
663
 21
738
  0
LINE
  8
_0-1_
  6
CONTINUOUS
 62
    7
 10
862.99999999999989
 20
438
 11
663
 21
438
  0
LINE
  8
_0-1_
  6
CONTINUOUS
 62
    7
 10
862.99999999999989
 20
738
 11
862.99999999999989
 21
438
  0
LINE
  8
_0-1_
  6
CONTINUOUS
 62
    7
 10
663
 20
738
 11
862.99999999999989
 21
738
  0
LINE
  8
_0-1_
  6
CONTINUOUS
 62
    7
 10
123
 20
345.99999675919526
 11
123
 21
145.99999675919526
  0
LINE
  8
_0-1_
  6
CONTINUOUS
 62
    7
 10
123
 20
145.99999675919526
 11
573
 21
145.99999675919526
  0
LINE
  8
_0-1_
  6
CONTINUOUS
 62
    7
 10
573
 20
345.99999675919526
 11
573
 21
145.99999675919526
  0
LINE
  8
_0-1_
  6
CONTINUOUS
 62
    7
 10
123
 20
345.99999675919526
 11
573
 21
345.99999675919526
  0
ARC
  8
_0-1_
  6
CONTINUOUS
 62
    7
 10
429.00001242308485
 20
336.00001836456028
 40
1.5000000675167655
 50
270
 51
0
  0
ARC
  8
_0-1_
  6
CONTINUOUS
 62
    7
 10
429.00001242308485
 20
336.00001836456028
 40
1.5000000675167655
 50
0
 51
89.999969482421875
  0
LINE
  8
_0-1_
  6
CONTINUOUS
 62
    7
 10
429.00001242308485
 20
337.49999243812232
 11
407.00001458362135
 21
337.49999243812232
  0
LINE
  8
_0-1_
  6
CONTINUOUS
 62
    7
 10
407.00001458362135
 20
334.50000648160955
 11
429.00001242308485
 21
334.50000648160955
  0
ARC
  8
_0-1_
  6
CONTINUOUS
 62
    7
 10
407.00001458362135
 20
336.00001836456028
 40
1.5000000675167655
 50
180.00001525878906
 51
270
  0
ARC
  8
_0-1_
  6
CONTINUOUS
 62
    7
 10
407.00001458362135
 20
336.00001836456028
 40
1.5000000675167655
 50
89.999969482421875
 51
180.00001525878903
  0
ARC
  8
_0-1_
  6
CONTINUOUS
 62
    7
 10
359.00001242308485
 20
336.00001836456028
 40
1.5000000675167655
 50
270
 51
0
  0
ARC
  8
_0-1_
  6
CONTINUOUS
 62
    7
 10
359.00001242308485
 20
336.00001836456028
 40
1.5000000675167655
 50
0
 51
89.999969482421875
  0
LINE
  8
_0-1_
  6
CONTINUOUS
 62
    7
 10
359.00001242308485
 20
337.49999243812232
 11
337.00001458362135
 21
337.49999243812232
  0
LINE
  8
_0-1_
  6
CONTINUOUS
 62
    7
 10
337.00001458362135
 20
334.50000648160955
 11
359.00001242308485
 21
334.50000648160955
  0
ARC
  8
_0-1_
  6
CONTINUOUS
 62
    7
 10
337.00001458362135
 20
336.00001836456028
 40
1.5000000675167655
 50
180.00001525878906
 51
270
  0
ARC
  8
_0-1_
  6
CONTINUOUS
 62
    7
 10
337.00001458362135
 20
336.00001836456028
 40
1.5000000675167655
 50
89.999969482421875
 51
180.00001525878903
  0
ARC
  8
_0-1_
  6
CONTINUOUS
 62
    7
 10
289.00001242308485
 20
336.00001836456028
 40
1.5000000675167655
 50
270
 51
0
  0
ARC
  8
_0-1_
  6
CONTINUOUS
 62
    7
 10
289.00001242308485
 20
336.00001836456028
 40
1.5000000675167655
 50
0
 51
89.999969482421875
  0
LINE
  8
_0-1_
  6
CONTINUOUS
 62
    7
 10
289.00001242308485
 20
337.49999243812232
 11
267.00001458362135
 21
337.49999243812232
  0
LINE
  8
_0-1_
  6
CONTINUOUS
 62
    7
 10
267.00001458362135
 20
334.50000648160955
 11
289.00001242308485
 21
334.50000648160955
  0
ARC
  8
_0-1_
  6
CONTINUOUS
 62
    7
 10
267.00001458362135
 20
336.00001836456028
 40
1.5000000675167655
 50
89.999969482421875
 51
180.00001525878903
  0
ARC
  8
_0-1_
  6
CONTINUOUS
 62
    7
 10
267.00001458362135
 20
336.00001836456028
 40
1.5000000675167655
 50
180.00001525878906
 51
270
  0
LINE
  8
_0-1_
  6
CONTINUOUS
 62
    7
 10
141.99999297825642
 20
334.50000648160955
 11
164.00000972241429
 21
334.50000648160955
  0
ARC
  8
_0-1_
  6
CONTINUOUS
 62
    7
 10
164.00000972241429
 20
336.00001836456028
 40
1.5000000675167655
 50
270
 51
0
  0
ARC
  8
_0-1_
  6
CONTINUOUS
 62
    7
 10
164.00000972241429
 20
336.00001836456028
 40
1.5000000675167655
 50
0
 51
89.999969482421875
  0
LINE
  8
_0-1_
  6
CONTINUOUS
 62
    7
 10
164.00000972241429
 20
337.49999243812232
 11
141.99999297825642
 21
337.49999243812232
  0
ARC
  8
_0-1_
  6
CONTINUOUS
 62
    7
 10
141.99999297825642
 20
336.00001836456028
 40
1.5000000675167655
 50
89.999969482421875
 51
180.00001525878903
  0
ARC
  8
_0-1_
  6
CONTINUOUS
 62
    7
 10
141.99999297825642
 20
336.00001836456028
 40
1.5000000675167655
 50
180.00001525878906
 51
270
  0
ARC
  8
_0-1_
  6
CONTINUOUS
 62
    7
 10
554.00003402844982
 20
336.00001836456028
 40
1.5000000675167655
 50
0
 51
89.999969482421875
  0
LINE
  8
_0-1_
  6
CONTINUOUS
 62
    7
 10
554.00003402844982
 20
337.49999243812232
 11
532.00003618898643
 21
337.49999243812232
  0
ARC
  8
_0-1_
  6
CONTINUOUS
 62
    7
 10
554.00003402844982
 20
336.00001836456028
 40
1.5000000675167655
 50
270
 51
0
  0
LINE
  8
_0-1_
  6
CONTINUOUS
 62
    7
 10
532.00003618898643
 20
334.50000648160955
 11
554.00003402844982
 21
334.50000648160955
  0
ARC
  8
_0-1_
  6
CONTINUOUS
 62
    7
 10
532.00003618898643
 20
336.00001836456028
 40
1.5000000675167655
 50
180.00001525878906
 51
270
  0
ARC
  8
_0-1_
  6
CONTINUOUS
 62
    7
 10
532.00003618898643
 20
336.00001836456028
 40
1.5000000675167655
 50
89.999969482421875
 51
180.00001525878903
  0
LINE
  8
_0-3_
  6
CONTINUOUS
 62
    7
 10
283.00000270067062
 20
345.99999675919526
 11
412.99998649664678
 21
345.99999675919526
  0
LINE
  8
_0-3_
  6
CONTINUOUS
 62
    7
 10
412.99998649664678
 20
345.99999675919526
 11
410.99998325584198
 21
348
  0
LINE
  8
_0-3_
  6
CONTINUOUS
 62
    7
 10
285.00000594147537
 20
348
 11
410.99998325584198
 21
348
  0
LINE
  8
_0-3_
  6
CONTINUOUS
 62
    7
 10
285.00000594147537
 20
348
 11
283.00000270067062
 21
345.99999675919526
  0
LINE
  8
_0-0_
  6
CONTINUOUS
 62
    7
 10
397.99999324832345
 20
703.9999978394635
 11
400.32936465424609
 21
712.69333027606513
  0
LINE
  8
_0-0_
  6
CONTINUOUS
 62
    7
 10
397.99999324832345
 20
703.9999978394635
 11
404.36395427900231
 21
710.36395887014248
  0
CIRCLE
  8
_0-0_
  6
CONTINUOUS
 62
    7
 10
434.95041172384572
 20
768
 40
9
  0
TEXT
  8
_0-0_
 62
    7
 10
427.45041172384572
 20
760.5
 40
15
 41
1
 50
0
  1
３
  0
CIRCLE
  8
_0-0_
  6
CONTINUOUS
 62
    7
 10
452.95041172384572
 20
768
 40
9
  0
TEXT
  8
_0-0_
 62
    7
 10
445.45041172384572
 20
760.5
 40
15
 41
1
 50
0
  1
８
  0
TEXT
  8
_0-0_
 62
    7
 10
461.85975782677224
 20
760.53938601180778
 40
10.5
 41
1
 50
0
  1
x4
  0
LINE
  8
_0-0_
  6
CONTINUOUS
 62
    7
 10
397.99999324832345
 20
703.9999978394635
 11
430.45041172384583
 21
760.20577136594011
  0
LINE
  8
_0-0_
  6
CONTINUOUS
 62
    7
 10
348
 20
706
 11
341.63603896932108
 21
712.36396103067887
  0
LINE
  8
_0-0_
  6
CONTINUOUS
 62
    7
 10
348
 20
706
 11
345.6706285940773
 21
714.69333243660162
  0
CIRCLE
  8
_0-0_
  6
CONTINUOUS
 62
    7
 10
312.20428331024317
 20
768
 40
9
  0
CIRCLE
  8
_0-0_
  6
CONTINUOUS
 62
    7
 10
330.20428331024317
 20
768
 40
9
  0
TEXT
  8
_0-0_
 62
    7
 10
322.70428331024317
 20
760.5
 40
15
 41
1
 50
0
  1
８
  0
TEXT
  8
_0-0_
 62
    7
 10
339.11362941316969
 20
760.53938601180778
 40
10.5
 41
1
 50
0
  1
x4
  0
LINE
  8
_0-0_
  6
CONTINUOUS
 62
    7
 10
348
 20
706
 11
316.70428331024317
 21
760.20577136594011
  0
TEXT
  8
_0-0_
 62
    7
 10
304.70428331024317
 20
760.5
 40
15
 41
1
 50
0
  1
４
  0
LINE
  8
_0-0_
  6
CONTINUOUS
 62
    7
 10
194.99997191302546
 20
678.99996111034307
 11
197.32934331894816
 21
687.69329354694457
  0
LINE
  8
_0-0_
  6
CONTINUOUS
 62
    7
 10
194.99997191302546
 20
678.99996111034307
 11
201.36393294370436
 21
685.36392214102193
  0
CIRCLE
  8
_0-0_
  6
CONTINUOUS
 62
    7
 10
246.38416832385616
 20
768
 40
9
  0
CIRCLE
  8
_0-0_
  6
CONTINUOUS
 62
    7
 10
264.38416832385616
 20
768
 40
9
  0
LINE
  8
_0-0_
  6
CONTINUOUS
 62
    7
 10
194.99997191302546
 20
678.99996111034307
 11
241.8841683238561
 21
760.20577136594011
  0
TEXT
  8
_0-0_
 62
    7
 10
238.8841683238561
 20
760.5
 40
15
 41
1
 50
0
  1
５
  0
TEXT
  8
_0-0_
 62
    7
 10
256.88416832385616
 20
760.5
 40
15
 41
1
 50
0
  1
６
  0
LINE
  8
_0-0_
  6
CONTINUOUS
 62
    2
 10
144
 20
789
 11
152.69333243660159
 21
791.32937140592276
  0
LINE
  8
_0-0_
  6
CONTINUOUS
 62
    2
 10
144
 20
789
 11
152.69333243660159
 21
786.67062859407724
  0
LINE
  8
_0-0_
  6
CONTINUOUS
 62
    2
 10
552
 20
789
 11
543.30666756339838
 21
791.32937140592276
  0
LINE
  8
_0-0_
  6
CONTINUOUS
 62
    2
 10
552
 20
789
 11
543.30666756339838
 21
786.67062859407724
  0
LINE
  8
_0-0_
  6
CONTINUOUS
 62
    2
 10
144
 20
792
 11
144
 21
720
  0
LINE
  8
_0-0_
  6
CONTINUOUS
 62
    2
 10
552
 20
792
 11
552
 21
720
  0
LINE
  8
_0-0_
  6
CONTINUOUS
 62
    2
 10
144
 20
789
 11
552
 21
789
  0
TEXT
  8
_0-0_
 62
    7
 10
336
 20
790.5
 40
15
 41
1
 50
0
  1
408
  0
LINE
  8
_0-0_
  6
CONTINUOUS
 62
    2
 10
123
 20
810
 11
131.69333243660159
 21
812.32937140592276
  0
LINE
  8
_0-0_
  6
CONTINUOUS
 62
    2
 10
123
 20
810
 11
131.69333243660159
 21
807.67062859407724
  0
LINE
  8
_0-0_
  6
CONTINUOUS
 62
    2
 10
573
 20
810
 11
564.30666756339838
 21
812.32937140592276
  0
LINE
  8
_0-0_
  6
CONTINUOUS
 62
    2
 10
573
 20
810
 11
564.30666756339838
 21
807.67062859407724
  0
LINE
  8
_0-0_
  6
CONTINUOUS
 62
    2
 10
123
 20
813
 11
123
 21
741
  0
LINE
  8
_0-0_
  6
CONTINUOUS
 62
    2
 10
573
 20
813
 11
573
 21
741
  0
LINE
  8
_0-0_
  6
CONTINUOUS
 62
    2
 10
123
 20
810
 11
573
 21
810
  0
TEXT
  8
_0-0_
 62
    7
 10
336
 20
811.5
 40
15
 41
1
 50
0
  1
450
  0
LINE
  8
_0-0_
  6
CONTINUOUS
 62
    2
 10
102
 20
459
 11
99.6706285940773
 21
467.69333243660162
  0
LINE
  8
_0-0_
  6
CONTINUOUS
 62
    2
 10
102
 20
459
 11
104.3293714059227
 21
467.69333243660162
  0
LINE
  8
_0-0_
  6
CONTINUOUS
 62
    2
 10
102
 20
717
 11
99.6706285940773
 21
708.30666756339838
  0
LINE
  8
_0-0_
  6
CONTINUOUS
 62
    2
 10
102
 20
717
 11
104.3293714059227
 21
708.30666756339838
  0
LINE
  8
_0-0_
  6
CONTINUOUS
 62
    2
 10
99
 20
459
 11
141
 21
459
  0
LINE
  8
_0-0_
  6
CONTINUOUS
 62
    2
 10
99
 20
717
 11
141
 21
717
  0
LINE
  8
_0-0_
  6
CONTINUOUS
 62
    2
 10
102
 20
459
 11
102
 21
717
  0
TEXT
  8
_0-0_
 62
    7
 10
100.5
 20
576
 40
15
 41
1
 50
90
  1
258
  0
LINE
  8
_0-0_
  6
CONTINUOUS
 62
    2
 10
81
 20
438
 11
78.6706285940773
 21
446.69333243660162
  0
LINE
  8
_0-0_
  6
CONTINUOUS
 62
    2
 10
81
 20
438
 11
83.3293714059227
 21
446.69333243660162
  0
LINE
  8
_0-0_
  6
CONTINUOUS
 62
    2
 10
81
 20
738
 11
78.6706285940773
 21
729.30666756339838
  0
LINE
  8
_0-0_
  6
CONTINUOUS
 62
    2
 10
81
 20
738
 11
83.3293714059227
 21
729.30666756339838
  0
LINE
  8
_0-0_
  6
CONTINUOUS
 62
    2
 10
78
 20
438
 11
120
 21
438
  0
LINE
  8
_0-0_
  6
CONTINUOUS
 62
    2
 10
78
 20
738
 11
120
 21
738
  0
LINE
  8
_0-0_
  6
CONTINUOUS
 62
    2
 10
81
 20
438
 11
81
 21
738
  0
TEXT
  8
_0-0_
 62
    7
 10
79.5
 20
576
 40
15
 41
1
 50
90
  1
300
  0
LINE
  8
_0-0_
  6
CONTINUOUS
 62
    2
 10
663
 20
810
 11
671.69333243660162
 21
812.32937140592276
  0
LINE
  8
_0-0_
  6
CONTINUOUS
 62
    2
 10
663
 20
810
 11
671.69333243660162
 21
807.67062859407724
  0
LINE
  8
_0-0_
  6
CONTINUOUS
 62
    2
 10
862.99999999999989
 20
810
 11
854.30666756339838
 21
812.32937140592276
  0
LINE
  8
_0-0_
  6
CONTINUOUS
 62
    2
 10
862.99999999999989
 20
810
 11
854.30666756339838
 21
807.67062859407724
  0
LINE
  8
_0-0_
  6
CONTINUOUS
 62
    2
 10
663
 20
813
 11
663
 21
741
  0
LINE
  8
_0-0_
  6
CONTINUOUS
 62
    2
 10
862.99999999999989
 20
813
 11
862.99999999999989
 21
741
  0
LINE
  8
_0-0_
  6
CONTINUOUS
 62
    2
 10
663
 20
810
 11
862.99999999999989
 21
810
  0
TEXT
  8
_0-0_
 62
    7
 10
751
 20
811.5
 40
15
 41
1
 50
0
  1
200
  0
CIRCLE
  8
_0-9_
  6
CONTINUOUS
 62
    7
 10
461.99998649664678
 20
687
 40
11.350000432107301
  0
CIRCLE
  8
_0-9_
  6
CONTINUOUS
 62
    7
 10
461.99998649664678
 20
687
 40
9.9999996624161707
  0
CIRCLE
  8
_0-9_
  6
CONTINUOUS
 62
    7
 10
461.99998649664678
 20
687
 40
5.8999997535638045
  0
LINE
  8
_0-9_
  6
CONTINUOUS
 62
    7
 10
460.89996013810162
 20
682.68335249009033
 11
460.89996013810162
 21
692.18333952687135
  0
LINE
  8
_0-9_
  6
CONTINUOUS
 62
    7
 10
463.10001285519229
 20
682.68335249009033
 11
460.89996013810162
 21
682.68335249009033
  0
LINE
  8
_0-9_
  6
CONTINUOUS
 62
    7
 10
463.10001285519229
 20
692.18333952687135
 11
463.10001285519229
 21
682.68335249009033
  0
LINE
  8
_0-9_
  6
CONTINUOUS
 62
    7
 10
460.89996013810162
 20
692.18333952687135
 11
463.10001285519229
 21
692.18333952687135
  0
CIRCLE
  8
_0-9_
  6
CONTINUOUS
 62
    7
 10
508.76535830100647
 20
768
 40
9
  0
TEXT
  8
_0-9_
 62
    7
 10
501.26535830100647
 20
760.5
 40
15
 41
1
 50
0
  1
９
  0
LINE
  8
_0-9_
  6
CONTINUOUS
 62
    7
 10
467.67498671270039
 20
696.8293887071693
 11
470.00435811862314
 21
705.52272114377081
  0
LINE
  8
_0-9_
  6
CONTINUOUS
 62
    7
 10
467.67498671270039
 20
696.8293887071693
 11
474.03894774337937
 21
703.19334973784817
  0
LINE
  8
_0-9_
  6
CONTINUOUS
 62
    7
 10
467.67498671270039
 20
696.8293887071693
 11
504.26535830100647
 21
760.20577136594011
  0
POINT
  8
_0-f_
 62
    9
 10
1170
 20
288
  0
POINT
  8
_0-f_
 62
    9
 10
1170
 20
306
  0
POINT
  8
_0-f_
 62
    9
 10
1170
 20
270
  0
POINT
  8
_0-f_
 62
    9
 10
1170
 20
252
  0
POINT
  8
_0-f_
 62
    9
 10
1170
 20
234
  0
POINT
  8
_0-f_
 62
    9
 10
1170
 20
216
  0
POINT
  8
_0-f_
 62
    9
 10
1170
 20
198
  0
POINT
  8
_0-f_
 62
    9
 10
1170
 20
180
  0
POINT
  8
_0-f_
 62
    9
 10
1170
 20
324
  0
TEXT
  8
_0-f_
 62
    7
 10
1158
 20
324
 40
12
 41
1
 50
0
  1
備考
  0
POINT
  8
_0-f_
 62
    9
 10
1104
 20
324
  0
POINT
  8
_0-f_
 62
    9
 10
1104
 20
306
  0
POINT
  8
_0-f_
 62
    9
 10
1104
 20
288
  0
POINT
  8
_0-f_
 62
    9
 10
1104
 20
270
  0
POINT
  8
_0-f_
 62
    9
 10
1104
 20
252
  0
POINT
  8
_0-f_
 62
    9
 10
1104
 20
234
  0
POINT
  8
_0-f_
 62
    9
 10
1104
 20
216
  0
POINT
  8
_0-f_
 62
    9
 10
1104
 20
198
  0
POINT
  8
_0-f_
 62
    9
 10
1104
 20
180
  0
POINT
  8
_0-f_
 62
    9
 10
978
 20
324
  0
POINT
  8
_0-f_
 62
    9
 10
978
 20
306
  0
POINT
  8
_0-f_
 62
    9
 10
978
 20
288
  0
POINT
  8
_0-f_
 62
    9
 10
1038
 20
324
  0
POINT
  8
_0-f_
 62
    9
 10
1038
 20
306
  0
POINT
  8
_0-f_
 62
    9
 10
1038
 20
288
  0
POINT
  8
_0-f_
 62
    9
 10
978
 20
270
  0
POINT
  8
_0-f_
 62
    9
 10
1038
 20
270
  0
POINT
  8
_0-f_
 62
    9
 10
978
 20
252
  0
POINT
  8
_0-f_
 62
    9
 10
1038
 20
252
  0
POINT
  8
_0-f_
 62
    9
 10
978
 20
234
  0
POINT
  8
_0-f_
 62
    9
 10
1038
 20
234
  0
POINT
  8
_0-f_
 62
    9
 10
978
 20
216
  0
POINT
  8
_0-f_
 62
    9
 10
1038
 20
216
  0
POINT
  8
_0-f_
 62
    9
 10
978
 20
198
  0
POINT
  8
_0-f_
 62
    9
 10
1038
 20
198
  0
POINT
  8
_0-f_
 62
    9
 10
978
 20
180
  0
POINT
  8
_0-f_
 62
    9
 10
1038
 20
180
  0
TEXT
  8
_0-f_
 62
    7
 10
966
 20
324
 40
12
 41
1
 50
0
  1
番号
  0
TEXT
  8
_0-f_
 62
    7
 10
1008
 20
324
 40
12
 41
1
 50
0
  1
部　材　名
  0
TEXT
  8
_0-f_
 62
    7
 10
972
 20
306
 40
12
 41
1
 50
0
  1
１
  0
TEXT
  8
_0-f_
 62
    7
 10
972
 20
288
 40
12
 41
1
 50
0
  1
２
  0
TEXT
  8
_0-f_
 62
    7
 10
972
 20
270
 40
12
 41
1
 50
0
  1
３
  0
TEXT
  8
_0-f_
 62
    7
 10
972
 20
252
 40
12
 41
1
 50
0
  1
４
  0
TEXT
  8
_0-f_
 62
    7
 10
972
 20
234
 40
12
 41
1
 50
0
  1
５
  0
TEXT
  8
_0-f_
 62
    7
 10
972
 20
216
 40
12
 41
1
 50
0
  1
６
  0
TEXT
  8
_0-f_
 62
    7
 10
972
 20
198
 40
12
 41
1
 50
0
  1
７
  0
TEXT
  8
_0-f_
 62
    7
 10
972
 20
180
 40
12
 41
1
 50
0
  1
８
  0
TEXT
  8
_0-f_
 62
    7
 10
1026
 20
306
 40
12
 41
1
 50
0
  1
本体
  0
TEXT
  8
_0-f_
 62
    7
 10
1032
 20
288
 40
12
 41
1
 50
0
  1
扉
  0
TEXT
  8
_0-f_
 62
    7
 10
1014
 20
270
 40
12
 41
1
 50
0
  1
埋込取手
  0
TEXT
  8
_0-f_
 62
    7
 10
996
 20
252
 40
12
 41
1
 50
0
  1
ボールキャッチ
  0
TEXT
  8
_0-f_
 62
    7
 10
1020
 20
234
 40
12
 41
1
 50
0
  1
クサリ
  0
TEXT
  8
_0-f_
 62
    7
 10
996
 20
216
 40
12
 41
1
 50
0
  1
クサリ止め金具
  0
TEXT
  8
_0-f_
 62
    7
 10
1008
 20
198
 40
12
 41
1
 50
0
  1
丸リベット
  0
TEXT
  8
_0-f_
 62
    7
 10
996
 20
180
 40
12
 41
1
 50
0
  1
皿ビス・ナット
  0
LINE
  8
_0-f_
  6
CONTINUOUS
 62
    7
 10
963
 20
339
 11
1215
 21
339
  0
LINE
  8
_0-f_
  6
CONTINUOUS
 62
    7
 10
963
 20
321
 11
1215
 21
321
  0
LINE
  8
_0-f_
  6
CONTINUOUS
 62
    7
 10
963
 20
303
 11
1215
 21
303
  0
LINE
  8
_0-f_
  6
CONTINUOUS
 62
    7
 10
963
 20
285
 11
1215
 21
285
  0
LINE
  8
_0-f_
  6
CONTINUOUS
 62
    7
 10
963
 20
267
 11
1215
 21
267
  0
LINE
  8
_0-f_
  6
CONTINUOUS
 62
    7
 10
963
 20
249
 11
1215
 21
249
  0
LINE
  8
_0-f_
  6
CONTINUOUS
 62
    7
 10
963
 20
231
 11
1215
 21
231
  0
LINE
  8
_0-f_
  6
CONTINUOUS
 62
    7
 10
963
 20
213
 11
1215
 21
213
  0
LINE
  8
_0-f_
  6
CONTINUOUS
 62
    7
 10
963
 20
195
 11
1215
 21
195
  0
LINE
  8
_0-f_
  6
CONTINUOUS
 62
    7
 10
963
 20
177
 11
1215
 21
177
  0
TEXT
  8
_0-f_
 62
    7
 10
1092
 20
324
 40
12
 41
1
 50
0
  1
材質
  0
TEXT
  8
_0-f_
 62
    7
 10
1086
 20
270
 40
12
 41
1
 50
0
  1
SUS304
  0
TEXT
  8
_0-f_
 62
    7
 10
1095
 20
252
 40
12
 41
1
 50
0
  1
ZDC
  0
TEXT
  8
_0-f_
 62
    7
 10
1086
 20
234
 40
12
 41
1
 50
0
  1
SUS304
  0
TEXT
  8
_0-f_
 62
    7
 10
1089
 20
216
 40
12
 41
1
 50
0
  1
SS400
  0
TEXT
  8
_0-f_
 62
    7
 10
1086
 20
198
 40
12
 41
1
 50
0
  1
SUS304
  0
TEXT
  8
_0-f_
 62
    7
 10
1086
 20
180
 40
12
 41
1
 50
0
  1
SUS304
  0
TEXT
  8
_0-f_
 62
    7
 10
1161
 20
234
 40
12
 41
1
 50
0
  1
φ3
  0
TEXT
  8
_0-f_
 62
    7
 10
1128
 20
216
 40
12
 41
1
 50
0
  1
ユニクロメッキ
  0
TEXT
  8
_0-f_
 62
    7
 10
1161
 20
198
 40
12
 41
1
 50
0
  1
φ6
  0
TEXT
  8
_0-f_
 62
    7
 10
1161
 20
180
 40
12
 41
1
 50
0
  1
Ｍ4
  0
TEXT
  8
_0-f_
 62
    7
 10
1032
 20
429
 40
12
 41
1
 50
0
  1
　　　別途加工できます
  0
TEXT
  8
_0-f_
 62
    7
 10
1032
 20
444
 40
12
 41
1
 50
0
  1
※１）取付穴・配管用穴は、
  0
TEXT
  8
_0-f_
 62
    7
 10
1032
 20
474
 40
12
 41
1
 50
0
  1
　４）裏板付
  0
TEXT
  8
_0-f_
 62
    7
 10
1032
 20
489
 40
12
 41
1
 50
0
  1
　３）扉 取外し可能
  0
TEXT
  8
_0-f_
 62
    7
 10
1032
 20
504
 40
12
 41
1
 50
0
  1
　２）保温マット付
  0
POINT
  8
_0-f_
 62
    9
 10
1032
 20
519
  0
POINT
  8
_0-f_
 62
    9
 10
1032
 20
504
  0
POINT
  8
_0-f_
 62
    9
 10
1032
 20
489
  0
POINT
  8
_0-f_
 62
    9
 10
1032
 20
474
  0
POINT
  8
_0-f_
 62
    9
 10
1032
 20
444
  0
POINT
  8
_0-f_
 62
    9
 10
1032
 20
429
  0
TEXT
  8
_0-f_
 62
    7
 10
1032
 20
519
 40
12
 41
1
 50
0
  1
注１）ヘアーライン仕上げ
  0
TEXT
  8
_0-f_
 62
    7
 10
1086
 20
288
 40
12
 41
1
 50
0
  1
SUS304
  0
TEXT
  8
_0-f_
 62
    7
 10
1086
 20
306
 40
12
 41
1
 50
0
  1
SUS304
  0
TEXT
  8
_0-f_
 62
    7
 10
1149
 20
306
 40
12
 41
1
 50
0
  1
t1.5-HL
  0
TEXT
  8
_0-f_
 62
    7
 10
1149
 20
288
 40
12
 41
1
 50
0
  1
t1.5-HL
  0
POINT
  8
_0-f_
 62
    9
 10
1170
 20
162
  0
POINT
  8
_0-f_
 62
    9
 10
1104
 20
162
  0
POINT
  8
_0-f_
 62
    9
 10
978
 20
162
  0
POINT
  8
_0-f_
 62
    9
 10
1038
 20
162
  0
LINE
  8
_0-f_
  6
CONTINUOUS
 62
    7
 10
963
 20
159
 11
1215
 21
159
  0
LINE
  8
_0-f_
  6
CONTINUOUS
 62
    7
 10
963
 20
159
 11
963
 21
339
  0
LINE
  8
_0-f_
  6
CONTINUOUS
 62
    7
 10
993
 20
159
 11
993
 21
339
  0
LINE
  8
_0-f_
  6
CONTINUOUS
 62
    7
 10
1083
 20
159
 11
1083
 21
339
  0
LINE
  8
_0-f_
  6
CONTINUOUS
 62
    7
 10
1125
 20
159
 11
1125
 21
339
  0
LINE
  8
_0-f_
  6
CONTINUOUS
 62
    7
 10
1215
 20
159
 11
1215
 21
339
  0
TEXT
  8
_0-f_
 62
    7
 10
972
 20
162
 40
12
 41
1
 50
0
  1
９
  0
TEXT
  8
_0-f_
 62
    7
 10
1002
 20
162
 40
12
 41
1
 50
0
  1
カムロックＳ
  0
TEXT
  8
_0-f_
 62
    7
 10
1095
 20
162
 40
12
 41
1
 50
0
  1
ZDC
  0
TEXT
  8
_0-f_
 62
    7
 10
957
 20
58.5
 40
13.5
 41
0.7777777777777777
 50
0
  1
ステンレス製メーターボックス（壁用・露出型・鍵付）
  0
LINE
  8
_0-0_
  6
CONTINUOUS
 62
    7
 10
555.29907219259781
 20
335.25001833080188
 11
563.99240462919943
 21
332.92064692487918
  0
LINE
  8
_0-0_
  6
CONTINUOUS
 62
    7
 10
555.29907219259781
 20
335.25001833080188
 11
561.66303322327667
 21
328.88605730012296
  0
LINE
  8
_0-0_
  6
CONTINUOUS
 62
    7
 10
555.29907219259781
 20
335.25001833080188
 11
603
 21
307.70987482060326
  0
TEXT
  8
_0-0_
 62
    7
 10
603
 20
307.70987482060326
 40
12
 41
1
 50
0
  1
5-水抜き穴
  0
LINE
  8
_0-0_
  6
CONTINUOUS
 62
    7
 10
603
 20
307.70987482060326
 11
663.70138980758088
 21
307.70987482060326
  0
ARC
  8
_0-7_
  6
DASHED2
 62
    4
 10
531.0000021605365
 20
484.00000432107299
 40
4.9999998312080853
 50
90
 51
270
  0
LINE
  8
_0-2_
  6
DASHED2
 62
    4
 10
531.0000021605365
 20
489.00000415228112
 11
531.0000021605365
 21
479.00000448986492
  0
LINE
  8
_0-7_
  6
DASHED2
 62
    4
 10
531.0000021605365
 20
487.00002808697457
 11
570.99999135785401
 21
487.00002808697457
  0
LINE
  8
_0-7_
  6
DASHED2
 62
    4
 10
531.0000021605365
 20
481.00001836456033
 11
570.99999135785401
 21
481.00001836456033
  0
LINE
  8
_0-2_
  6
DASHED2
 62
    4
 10
165.99999945986582
 20
489.99998686798904
 11
165.99999945986582
 21
479.99998720557278
  0
ARC
  8
_0-7_
  6
DASHED2
 62
    4
 10
165.99999945986582
 20
484.99998703678091
 40
4.9999998312080853
 50
270
 51
90
  0
LINE
  8
_0-7_
  6
DASHED2
 62
    4
 10
165.99999945986582
 20
488.00001080268254
 11
126.00001026254836
 21
488.00001080268254
  0
LINE
  8
_0-7_
  6
DASHED2
 62
    4
 10
165.99999945986582
 20
482.00000108026831
 11
126.00001026254836
 21
482.00000108026831
  0
TEXT
  8
_0-f_
 62
    7
 10
853.125
 20
58.5
 40
10.5
 41
1
 50
0
  1
2005.10.22.-9-4
  0
TEXT
  8
_0-f_
 62
    7
 10
1164
 20
85.5
 40
10.5
 41
1
 50
0
  1
FREE
  0
TEXT
  8
_0-f_
 62
    7
 10
957
 20
31.5
 40
13.5
 41
1
 50
0
  1
ＳＢ６０－１Ｋ
  0
TEXT
  8
_0-f_
 62
    7
 10
1194
 20
31.5
 40
10.5
 41
1
 50
0
  1
SB
  0
ENDSEC
  0
EOF
