  0
SECTION
  2
HEADER
  9
$ACADVER
  1
AC1009
  9
$INSBASE
 10
0
 20
0
 30
0
  9
$EXTMIN
 10
0
 20
0
  9
$EXTMAX
 10
4752
 20
3360
  9
$LIMMIN
 10
0
 20
0
  9
$LIMMAX
 10
4752
 20
3360
  9
$LTSCALE
 40
8
  0
ENDSEC
  0
SECTION
  2
TABLES
  0
TABLE
  2
LTYPE
 70
     9
  0
LTYPE
  2
CONTINUOUS
 70
    64
  3
実線
 72
    65
 73
     0
 40
0.0
  0
LTYPE
  2
DASHED1
 70
    64
  3
--  --  --  --  --  --  --  --  
 72
    65
 73
     2
 40
2.5
 49
1.25
 49
-1.25
  0
LTYPE
  2
DASHED2
 70
    64
  3
----    ----    ----    ----    
 72
    65
 73
     2
 40
5.0
 49
2.5
 49
-2.5
  0
LTYPE
  2
DASHED3
 70
    64
  3
------  ------  ------  ------  
 72
    65
 73
     2
 40
5.0
 49
3.75
 49
-1.25
  0
LTYPE
  2
CENTER1
 70
    64
  3
----- - ----- - ----- - ----- - 
 72
    65
 73
     4
 40
10.0
 49
6.25
 49
-1.25
 49
1.25
 49
-1.25
  0
LTYPE
  2
CENTER2
 70
    64
  3
----------  --  ----------  --  
 72
    65
 73
     4
 40
20.0
 49
12.5
 49
-2.5
 49
2.5
 49
-2.5
  0
LTYPE
  2
PHANTOM1
 70
    64
  3
--- - - --- - - --- - - --- - - 
 72
    65
 73
     6
 40
10.0
 49
3.25
 49
-1.25
 49
1.25
 49
-1.25
 49
1.25
 49
-1.25
  0
LTYPE
  2
PHANTOM2
 70
    64
  3
--------  -  -  --------  -  -  
 72
    65
 73
     6
 40
20.0
 49
10.0
 49
-2.5
 49
1.25
 49
-2.5
 49
1.25
 49
-2.5
  0
LTYPE
  2
DOT
 70
    64
  3
-   -   -   -   -   -   -   -   
 72
    65
 73
     2
 40
2.5
 49
0.625
 49
-1.875
  0
LTYPE
  2
DUMMY
 70
    64
  3
ダミー
 72
    65
 73
     0
 40
0.0
  0
LTYPE
  2
RAND1
 70
    64
  3
ランダム線1
 72
    65
 73
     4
 40
10.0
 49
1.0
 49
-2.0
 49
3.0
 49
-4.0
  0
LTYPE
  2
RAND2
 70
    64
  3
ランダム線2
 72
    65
 73
     4
 40
14.0
 49
2.0
 49
-3.0
 49
4.0
 49
-5.0
  0
LTYPE
  2
RAND3
 70
    64
  3
ランダム線3
 72
    65
 73
     4
 40
18.0
 49
3.0
 49
-4.0
 49
5.0
 49
-6.0
  0
LTYPE
  2
RAND4
 70
    64
  3
ランダム線4
 72
    65
 73
     4
 40
22.0
 49
4.0
 49
-5.0
 49
6.0
 49
-7.0
  0
LTYPE
  2
RAND5
 70
    64
  3
ランダム線5
 72
    65
 73
     4
 40
26.0
 49
5.0
 49
-6.0
 49
7.0
 49
-8.0
  0
LTYPE
  2
LONG1
 70
    64
  3
----------  --  ----------  --  
 72
    65
 73
     4
 40
40.0
 49
32.5
 49
-2.5
 49
2.5
 49
-2.5
  0
LTYPE
  2
LONG2
 70
    64
  3
--------  -  -  --------  -  -  
 72
    65
 73
     6
 40
40.0
 49
30.0
 49
-2.5
 49
1.25
 49
-2.5
 49
1.25
 49
-2.5
  0
LTYPE
  2
LONG3
 70
    64
  3
+++++++++++++++..+++++++++++++++
 72
    65
 73
     2
 40
40.0
 49
37.5
 49
-2.5
  0
LTYPE
  2
LONG4
 70
    64
  3
+++++++++++++++..+++++++++++++++
 72
    65
 73
     2
 40
80.0
 49
75.0
 49
-5.0
  0
LTYPE
  2
LONG5
 70
    64
  3
----------  --  ----------  --  
 72
    65
 73
     4
 40
60.0
 49
37.5
 49
-7.5
 49
7.5
 49
-7.5
  0
LTYPE
  2
dashed
 70
   64
  3
-------   -------------   ------
 72
   65
 73
    2
 40
7.5
 49
6
 49
-1.5
  0
LTYPE
  2
dashed_spaced
 70
   64
  3
----        --------        ----
 72
   65
 73
    2
 40
12
 49
6
 49
-6
  0
LTYPE
  2
long_dashed_dotted
 70
   64
  3
------------- --- --------------
 72
   65
 73
    4
 40
15.25
 49
12
 49
-1.5
 49
0.25
 49
-1.5
  0
LTYPE
  2
long_dashed_double-dotted
 70
   64
  3
----------- --- --- ------------
 72
   65
 73
    6
 40
17
 49
12
 49
-1.5
 49
0.25
 49
-1.5
 49
0.25
 49
-1.5
  0
LTYPE
  2
long_dashed_triplicate-dotted
 70
   64
  3
--------- --- --- --- ----------
 72
   65
 73
    8
 40
18.75
 49
12
 49
-1.5
 49
0.25
 49
-1.5
 49
0.25
 49
-1.5
 49
0.25
 49
-1.5
  0
LTYPE
  2
dotted
 70
   64
  3
   -       -       -       -    
 72
   65
 73
    2
 40
1.75
 49
0.25
 49
-1.5
  0
LTYPE
  2
chain
 70
   64
  3
-------------- -- --------------
 72
   65
 73
    4
 40
18.5
 49
12
 49
-1.5
 49
3.5
 49
-1.5
  0
LTYPE
  2
chain_double_dash
 70
   64
  3
------------ -- -- -------------
 72
   65
 73
    6
 40
23.5
 49
12
 49
-1.5
 49
3.5
 49
-1.5
 49
3.5
 49
-1.5
  0
LTYPE
  2
dashed_dotted
 70
   64
  3
-----------     -     ----------
 72
   65
 73
    4
 40
9.25
 49
6
 49
-1.5
 49
0.25
 49
-1.5
  0
LTYPE
  2
double-dashed_dotted
 70
   64
  3
------   -----------   -   -----
 72
   65
 73
    6
 40
16.75
 49
6
 49
-1.5
 49
6
 49
-1.5
 49
0.25
 49
-1.5
  0
LTYPE
  2
dashed_double-dotted
 70
   64
  3
---------    -    -    ---------
 72
   65
 73
    6
 40
11
 49
6
 49
-1.5
 49
0.25
 49
-1.5
 49
0.25
 49
-1.5
  0
LTYPE
  2
double-dashed_double-dotted
 70
   64
  3
-----   ---------   -   -   ----
 72
   65
 73
    8
 40
18.5
 49
6
 49
-1.5
 49
6
 49
-1.5
 49
0.25
 49
-1.5
 49
0.25
 49
-1.5
  0
LTYPE
  2
dashed_triplicate-dotted
 70
   64
  3
-------    -    -    -    ------
 72
   65
 73
    8
 40
12.75
 49
6
 49
-1.5
 49
0.25
 49
-1.5
 49
0.25
 49
-1.5
 49
0.25
 49
-1.5
  0
LTYPE
  2
double-dashed_triplicate-dotted
 70
   64
  3
-----  ---------  -  -  -  -----
 72
   65
 73
   10
 40
20.25
 49
6
 49
-1.5
 49
6
 49
-1.5
 49
0.25
 49
-1.5
 49
0.25
 49
-1.5
 49
0.25
 49
-1.5
  0
LTYPE
  2
undefined
 70
   64
  3
--------------------------------
 72
   65
 73
    0
 40
0
  0
LTYPE
  2
_
 70
   64
  3
                                
 72
   65
 73
    0
 40
0
  0
LTYPE
  2
__18
 70
   64
  3
                                
 72
   65
 73
    0
 40
0
  0
LTYPE
  2
__19
 70
   64
  3
                                
 72
   65
 73
    0
 40
0
  0
LTYPE
  2
__20
 70
   64
  3
                                
 72
   65
 73
    0
 40
0
  0
LTYPE
  2
__21
 70
   64
  3
                                
 72
   65
 73
    0
 40
0
  0
LTYPE
  2
__22
 70
   64
  3
                                
 72
   65
 73
    0
 40
0
  0
LTYPE
  2
__23
 70
   64
  3
                                
 72
   65
 73
    0
 40
0
  0
LTYPE
  2
__24
 70
   64
  3
                                
 72
   65
 73
    0
 40
0
  0
LTYPE
  2
__25
 70
   64
  3
                                
 72
   65
 73
    0
 40
0
  0
LTYPE
  2
__26
 70
   64
  3
                                
 72
   65
 73
    0
 40
0
  0
LTYPE
  2
__27
 70
   64
  3
                                
 72
   65
 73
    0
 40
0
  0
LTYPE
  2
__28
 70
   64
  3
                                
 72
   65
 73
    0
 40
0
  0
LTYPE
  2
__29
 70
   64
  3
                                
 72
   65
 73
    0
 40
0
  0
LTYPE
  2
__30
 70
   64
  3
                                
 72
   65
 73
    0
 40
0
  0
LTYPE
  2
__31
 70
   64
  3
                                
 72
   65
 73
    0
 40
0
  0
LTYPE
  2
__32
 70
   64
  3
                                
 72
   65
 73
    0
 40
0
  0
ENDTAB
  0
TABLE
  2
STYLE
  5
3
100
AcDbSymbolTable
 70
     1
  0
STYLE
  5
10
100
AcDbSymbolTableRecord
100
AcDbTextStyleTableRecord
  2
STANDARD
 70
     0
 40
0.0
 41
1.0
 50
0.0
 71
     0
 42
0.2
  3
txt
  4
bigfont.shx
  0
STYLE
  5
26
100
AcDbSymbolTableRecord
100
AcDbTextStyleTableRecord
  2
TATEGAKI
 70
    68
 40
0.0
 41
1.0
 50
0.0
 71
     0
 42
1.0
  3
txt
  4
bigfont.shx
  0
ENDTAB
  0
TABLE
  2
LAYER
 70
    2
  0
LAYER
  2
_0-0_
 70
   64
 62
    7
  6
CONTINUOUS
  0
LAYER
  2
ADD_LINE
 70
   64
 62
    7
  6
CONTINUOUS
  0
ENDTAB
  0
ENDSEC
  0
SECTION
  2
BLOCKS
  0
ENDSEC
  0
SECTION
  2
ENTITIES
  0
LINE
  8
_0-0_
  6
CENTER1
 62
    7
 10
1564.0144903231176
 20
3137.1191910680263
 11
1564.0144903231176
 21
3119.4281325293405
  0
LINE
  8
_0-0_
  6
CONTINUOUS
 62
    7
 10
1605.1777550665001
 20
3006.8977518428319
 11
1685.1777550665001
 21
3006.8977518428319
  0
LINE
  8
_0-0_
  6
CONTINUOUS
 62
    7
 10
1605.1777550665001
 20
3016.8977518428319
 11
1685.1777550665001
 21
3016.8977518428319
  0
LINE
  8
_0-0_
  6
CONTINUOUS
 62
    7
 10
1605.1777550665001
 20
3026.8977518428319
 11
1685.1777550665001
 21
3026.8977518428319
  0
LINE
  8
_0-0_
  6
CONTINUOUS
 62
    2
 10
1628.5904912523599
 20
3134.8463174563226
 11
1589.3480285522646
 21
3134.8463174563226
  0
LINE
  8
_0-0_
  6
CONTINUOUS
 62
    7
 10
1495.1777550665001
 20
2986.8977518428319
 11
1685.1777550665001
 21
2986.8977518428319
  0
LINE
  8
_0-0_
  6
CONTINUOUS
 62
    7
 10
1605.1777550665001
 20
2996.8977518428319
 11
1685.1777550665001
 21
2996.8977518428319
  0
TEXT
  8
_0-0_
 62
    7
 10
1612.7912332241058
 20
3009.9516342497732
 40
4
 41
2
 50
0
  1
サイズ
  0
TEXT
  8
_0-0_
 62
    7
 10
1613.1080366690867
 20
3020.4061479341372
 40
4
 41
2
 50
0
  1
製品名
  0
TEXT
  8
_0-0_
 62
    7
 10
1608.3559849943754
 20
3029.5934478385789
 40
4
 41
2
 50
0
  1
製品番号
  0
LINE
  8
_0-0_
  6
CONTINUOUS
 62
    7
 10
1685.1777550665001
 20
3266.8977518428319
 11
1495.1777550665001
 21
3266.8977518428319
  0
LINE
  8
_0-0_
  6
CONTINUOUS
 62
    7
 10
1495.1777550665001
 20
3266.8977518428319
 11
1495.1777550665001
 21
2986.8977518428319
  0
LINE
  8
_0-0_
  6
CONTINUOUS
 62
    7
 10
1685.1777550665001
 20
2986.8977518428319
 11
1685.1777550665001
 21
3266.8977518428319
  0
LINE
  8
_0-0_
  6
CONTINUOUS
 62
    7
 10
1605.1777550665001
 20
2986.8977518428319
 11
1605.1777550665001
 21
3036.8977518428319
  0
LINE
  8
_0-0_
  6
CONTINUOUS
 62
    7
 10
1503.9081846891968
 20
3036.8977518428319
 11
1503.9081846891968
 21
3015.8977518428319
  0
LINE
  8
_0-0_
  6
CONTINUOUS
 62
    7
 10
1513.9081846891968
 20
3036.8977518428319
 11
1513.9081846891968
 21
3015.8977518428319
  0
TEXT
  8
_0-0_
 62
    7
 10
1506.7514093353229
 20
3017.1010639763499
 40
4
 41
1
 50
0
  1
２
  0
TEXT
  8
_0-0_
 62
    7
 10
1506.7514093353229
 20
3024.5422409544735
 40
4
 41
1
 50
0
  1
１
  0
TEXT
  8
_0-0_
 62
    7
 10
1504.6748018065441
 20
3031.1181647956064
 40
4
 41
1
 50
0
  1
Ｎｏ
  0
TEXT
  8
_0-0_
 62
    7
 10
1505.1074283750397
 20
3038.2132405189341
 40
4
 41
1
 50
0
  1
■部品構成
  0
LINE
  8
_0-0_
  6
CONTINUOUS
 62
    7
 10
1605.1777550665001
 20
3036.8977518428319
 11
1685.1777550665001
 21
3036.8977518428319
  0
TEXT
  8
_0-0_
 62
    7
 10
1631.8354721442033
 20
3158.9772325063432
 40
4
 41
1
 50
0
  1
①
  0
TEXT
  8
_0-0_
 62
    7
 10
1633.9019106081125
 20
3206.8889186920323
 40
4
 41
1
 50
0
  1
②
  0
LINE
  8
_0-0_
  6
CONTINUOUS
 62
    7
 10
1631.003697867181
 20
3208.7998739760087
 11
1604.2305131786707
 21
3208.7998739760087
  0
LINE
  8
_0-0_
  6
CONTINUOUS
 62
    7
 10
1601.2678370246108
 20
3160.9627914776975
 11
1629.502326808519
 21
3160.9627914776975
  0
LINE
  8
_0-0_
  6
CONTINUOUS
 62
    7
 10
1577.2445910550766
 20
3136.9395455081631
 11
1601.2678370246108
 21
3160.9627914776975
  0
LINE
  8
_0-0_
  6
CONTINUOUS
 62
    2
 10
1577.2445910550766
 20
3136.9395455081631
 11
1581.2445910550766
 21
3143.8677487384389
  0
LINE
  8
_0-0_
  6
CONTINUOUS
 62
    2
 10
1577.2445910550766
 20
3136.9395455081631
 11
1584.1727942853522
 21
3140.9395455081631
  0
TEXT
  8
_0-0_
 62
    7
 10
1504.9999594304027
 20
3252.7891598036431
 40
8
 41
1
 50
0
  1
排水用　目皿（ＶＰ専用）
  0
TEXT
  8
_0-0_
 62
    7
 10
1648.8206180377597
 20
3030.2369807123869
 40
4
 41
1
 50
0
  1
Ｄ－３Ｖ－ＶＰ
  0
TEXT
  8
_0-0_
 62
    7
 10
1645.8486288897393
 20
3019.669908186092
 40
4
 41
1
 50
0
  1
排水用目皿（ＶＰ用）
  0
TEXT
  8
_0-0_
 62
    7
 10
1654.2692648091304
 20
3009.8458329468026
 40
4
 41
1.3999999999999999
 50
0
  1
２５Ａ
  0
LINE
  8
_0-0_
  6
CONTINUOUS
 62
    7
 10
1538.9081846891968
 20
3036.8977518428319
 11
1538.9081846891968
 21
3015.8977518428319
  0
LINE
  8
_0-0_
  6
CONTINUOUS
 62
    7
 10
1563.9081846891968
 20
3036.8977518428319
 11
1563.9081846891968
 21
3015.8977518428319
  0
LINE
  8
_0-0_
  6
CONTINUOUS
 62
    7
 10
1593.9081846891968
 20
3036.8977518428319
 11
1593.9081846891968
 21
3015.8977518428319
  0
LINE
  8
_0-0_
  6
CONTINUOUS
 62
    7
 10
1503.9081846891968
 20
3036.8977518428319
 11
1593.9081846891968
 21
3036.8977518428319
  0
LINE
  8
_0-0_
  6
CONTINUOUS
 62
    7
 10
1503.9081846891968
 20
3029.8977518428319
 11
1593.9081846891968
 21
3029.8977518428319
  0
LINE
  8
_0-0_
  6
CONTINUOUS
 62
    7
 10
1503.9081846891968
 20
3015.8977518428319
 11
1593.9081846891968
 21
3015.8977518428319
  0
TEXT
  8
_0-0_
 62
    7
 10
1564.9444798602958
 20
3020.9907922518787
 40
4
 41
1
 50
0
  1
クロームメッキ
  0
TEXT
  8
_0-0_
 62
    7
 10
1568.9071320576563
 20
3031.4753095240621
 40
4
 41
1
 50
0
  1
備　　　考
  0
TEXT
  8
_0-0_
 62
    7
 10
1544.3882215864883
 20
3031.3101990158384
 40
4
 41
1
 50
0
  1
材　質
  0
TEXT
  8
_0-0_
 62
    7
 10
1542.7371165042546
 20
3020.9082369977673
 40
4
 41
1
 50
0
  1
ＣＡＣ203
  0
TEXT
  8
_0-0_
 62
    7
 10
1519.7867558612083
 20
3031.5578647781736
 40
4
 41
1
 50
0
  1
部品名
  0
TEXT
  8
_0-0_
 62
    7
 10
1519.7867558612083
 20
3024.6232234327927
 40
4
 41
1
 50
0
  1
本体枠
  0
TEXT
  8
_0-0_
 62
    7
 10
1516.071769426183
 20
3017.6060268333003
 40
4
 41
1
 50
0
  1
ストレーナ
  0
LINE
  8
_0-0_
  6
CONTINUOUS
 62
    7
 10
1503.9081846891968
 20
3022.8977518428319
 11
1538.9081846891968
 21
3022.8977518428319
  0
TEXT
  8
_0-0_
 62
    7
 10
1504.1012575799898
 20
3009.4330566762442
 40
4
 41
1
 50
0
  1
※ストレーナーはネジ込式
  0
TEXT
  8
_0-0_
 62
    7
 10
1504.1838128341014
 20
3004.2320756672084
 40
4
 41
1
 50
0
  1
※25Ａ・30Ａはテーパー加工しています
  0
LINE
  8
_0-0_
  6
CONTINUOUS
 62
    7
 10
1547.0144903231176
 20
3134.8463174563226
 11
1581.0144903231176
 21
3134.8463174563226
  0
LINE
  8
_0-0_
  6
CONTINUOUS
 62
    7
 10
1581.0144903231176
 20
3134.8463174563226
 11
1581.0144903231176
 21
3131.8463174563226
  0
LINE
  8
_0-0_
  6
CONTINUOUS
 62
    7
 10
1547.0144903231176
 20
3131.8463174563226
 11
1581.0144903231176
 21
3131.8463174563226
  0
LINE
  8
_0-0_
  6
CONTINUOUS
 62
    7
 10
1547.0144903231176
 20
3134.8463174563226
 11
1547.0144903231176
 21
3131.8463174563226
  0
LINE
  8
_0-0_
  6
CONTINUOUS
 62
    7
 10
1576.7644903231176
 20
3131.8463174563226
 11
1576.4144903231174
 21
3121.8463174563226
  0
LINE
  8
_0-0_
  6
CONTINUOUS
 62
    7
 10
1551.2644903231176
 20
3131.8463174563226
 11
1551.5644903231173
 21
3121.8463174563226
  0
LINE
  8
_0-0_
  6
CONTINUOUS
 62
    7
 10
1551.5644903231173
 20
3121.8463174563226
 11
1576.4144903231174
 21
3121.8463174563226
  0
LINE
  8
_0-0_
  6
CONTINUOUS
 62
    2
 10
1551.2644903231176
 20
3100.3673089523345
 11
1558.9918969334299
 21
3102.4378613131548
  0
LINE
  8
_0-0_
  6
CONTINUOUS
 62
    2
 10
1551.2644903231176
 20
3100.3673089523345
 11
1558.9918969334299
 21
3098.2967565915146
  0
LINE
  8
_0-0_
  6
CONTINUOUS
 62
    2
 10
1576.7644903231176
 20
3100.3673089523345
 11
1569.0370837128048
 21
3102.4378613131548
  0
LINE
  8
_0-0_
  6
CONTINUOUS
 62
    2
 10
1576.7644903231176
 20
3100.3673089523345
 11
1569.0370837128048
 21
3098.2967565915146
  0
LINE
  8
_0-0_
  6
CONTINUOUS
 62
    2
 10
1551.2644903231176
 20
3092.3673089523345
 11
1551.2644903231176
 21
3118.4306215127835
  0
LINE
  8
_0-0_
  6
CONTINUOUS
 62
    2
 10
1576.7644903231176
 20
3092.3673089523345
 11
1576.7644903231176
 21
3118.4306215127835
  0
LINE
  8
_0-0_
  6
CONTINUOUS
 62
    2
 10
1551.5644903231173
 20
3074.1755057396836
 11
1559.2918969334301
 21
3076.2460581005034
  0
LINE
  8
_0-0_
  6
CONTINUOUS
 62
    2
 10
1551.5644903231173
 20
3074.1755057396836
 11
1559.2918969334301
 21
3072.1049533788637
  0
LINE
  8
_0-0_
  6
CONTINUOUS
 62
    2
 10
1576.4144903231174
 20
3074.1755057396836
 11
1568.6870837128049
 21
3076.2460581005034
  0
LINE
  8
_0-0_
  6
CONTINUOUS
 62
    2
 10
1576.4144903231174
 20
3074.1755057396836
 11
1568.6870837128049
 21
3072.1049533788637
  0
LINE
  8
_0-0_
  6
CONTINUOUS
 62
    2
 10
1551.5644903231173
 20
3066.1755057396836
 11
1551.5644903231173
 21
3105.5605113134638
  0
LINE
  8
_0-0_
  6
CONTINUOUS
 62
    2
 10
1576.4144903231174
 20
3066.1755057396836
 11
1576.4144903231174
 21
3105.5605113134638
  0
TEXT
  8
_0-0_
 62
    7
 10
1560.2090463899356
 20
3103.754180057419
 40
4
 41
1
 50
0
  1
25.5
  0
TEXT
  8
_0-0_
 62
    7
 10
1559.7574635759242
 20
3076.8850026237506
 40
4
 41
1
 50
0
  1
24.8
  0
LINE
  8
_0-0_
  6
CONTINUOUS
 62
    7
 10
1551.2644903231176
 20
3100.3673089523345
 11
1576.7644903231176
 21
3100.3673089523345
  0
LINE
  8
_0-0_
  6
CONTINUOUS
 62
    7
 10
1551.5644903231173
 20
3074.1755057396836
 11
1576.4144903231174
 21
3074.1755057396836
  0
TEXT
  8
_0-0_
 62
    7
 10
1584.8864234190687
 20
3072.402390482087
 40
4
 41
1
 50
0
  1
差し口先側
  0
TEXT
  8
_0-0_
 62
    7
 10
1584.2377408488273
 20
3098.9983758619819
 40
4
 41
1
 50
0
  1
差し口　根本側
  0
LINE
  8
_0-0_
  6
CONTINUOUS
 62
    2
 10
1611.6545082563748
 20
3134.8463174563226
 11
1609.5839558955547
 21
3142.5737240666349
  0
LINE
  8
_0-0_
  6
CONTINUOUS
 62
    2
 10
1611.6545082563748
 20
3134.8463174563226
 11
1613.7250606171951
 21
3142.5737240666349
  0
LINE
  8
_0-0_
  6
CONTINUOUS
 62
    2
 10
1611.6545082563748
 20
3131.8463174563226
 11
1609.5839558955547
 21
3124.1189108460103
  0
LINE
  8
_0-0_
  6
CONTINUOUS
 62
    2
 10
1611.6545082563748
 20
3131.8463174563226
 11
1613.7250606171951
 21
3124.1189108460103
  0
LINE
  8
_0-0_
  6
CONTINUOUS
 62
    2
 10
1619.6545082563748
 20
3134.8463174563226
 11
1589.7316850661775
 21
3134.8463174563226
  0
LINE
  8
_0-0_
  6
CONTINUOUS
 62
    2
 10
1619.6545082563748
 20
3131.8463174563226
 11
1589.7316850661775
 21
3131.8463174563226
  0
LINE
  8
_0-0_
  6
CONTINUOUS
 62
    2
 10
1646.2862144553824
 20
3134.8463174563226
 11
1644.215662094562
 21
3142.5737240666349
  0
LINE
  8
_0-0_
  6
CONTINUOUS
 62
    2
 10
1646.2862144553824
 20
3134.8463174563226
 11
1648.3567668162027
 21
3142.5737240666349
  0
LINE
  8
_0-0_
  6
CONTINUOUS
 62
    2
 10
1646.2862144553824
 20
3121.8463174563226
 11
1644.215662094562
 21
3114.1189108460103
  0
LINE
  8
_0-0_
  6
CONTINUOUS
 62
    2
 10
1646.2862144553824
 20
3121.8463174563226
 11
1648.3567668162027
 21
3114.1189108460103
  0
LINE
  8
_0-0_
  6
CONTINUOUS
 62
    2
 10
1654.2862144553824
 20
3134.8463174563226
 11
1588.248982048483
 21
3134.8463174563226
  0
LINE
  8
_0-0_
  6
CONTINUOUS
 62
    2
 10
1654.2862144553824
 20
3121.8463174563226
 11
1588.248982048483
 21
3121.8463174563226
  0
TEXT
  8
_0-0_
 62
    7
 10
1609.5549117401902
 20
3132.3769855217515
 40
4
 41
1
 50
90
  1
3
  0
LINE
  8
_0-0_
  6
CONTINUOUS
 62
    7
 10
1611.6545082563748
 20
3134.8463174563226
 11
1611.6545082563748
 21
3131.8463174563226
  0
TEXT
  8
_0-0_
 62
    7
 10
1642.5480894451211
 20
3126.541624987372
 40
4
 41
1
 50
90
  1
13
  0
LINE
  8
_0-0_
  6
CONTINUOUS
 62
    7
 10
1646.2862144553824
 20
3134.8463174563226
 11
1646.2862144553824
 21
3121.8463174563226
  0
CIRCLE
  8
_0-0_
  6
CONTINUOUS
 62
    7
 10
1564.0144903231176
 20
3169.4867883298239
 40
17
  0
LINE
  8
_0-0_
  6
CENTER1
 62
    7
 10
1544.3393366211026
 20
3169.4867883298239
 11
1584.0095377145703
 21
3169.4867883298239
  0
LINE
  8
_0-0_
  6
CENTER1
 62
    7
 10
1564.0144903231176
 20
3189.5499936632214
 11
1564.0144903231176
 21
3150.9666473942325
  0
CIRCLE
  8
_0-0_
  6
CONTINUOUS
 62
    7
 10
1564.0144903231176
 20
3169.4867883298239
 40
11.699999999999999
  0
ARC
  8
_0-0_
  6
CONTINUOUS
 62
    7
 10
1570.5144903231176
 20
3169.4867883298239
 40
2
 50
270
 51
90
  0
ARC
  8
_0-0_
  6
CONTINUOUS
 62
    7
 10
1557.5144903231176
 20
3169.4867883298239
 40
2
 50
90
 51
270
  0
LINE
  8
_0-0_
  6
CONTINUOUS
 62
    7
 10
1557.5144903231176
 20
3167.4867883298239
 11
1570.5144903231176
 21
3167.4867883298239
  0
LINE
  8
_0-0_
  6
CONTINUOUS
 62
    7
 10
1557.5144903231176
 20
3171.4867883298239
 11
1570.5144903231176
 21
3171.4867883298239
  0
LINE
  8
_0-0_
  6
CONTINUOUS
 62
    7
 10
1569.8092783907048
 20
3175.7029443533675
 11
1569.7643321440894
 21
3175.7469256313375
  0
ARC
  8
_0-0_
  6
CONTINUOUS
 62
    7
 10
1569.1129867737973
 20
3174.985185351874
 40
1
 50
274.86490525436091
 51
45.869768052138355
  0
LINE
  8
_0-0_
  6
CONTINUOUS
 62
    7
 10
1569.1977934006629
 20
3173.9887879231142
 11
1569.0580205565288
 21
3173.9867883298239
  0
LINE
  8
_0-0_
  6
CONTINUOUS
 62
    7
 10
1558.6684160558077
 20
3174.0058459559405
 11
1558.8798587519386
 21
3173.9867883298239
  0
LINE
  8
_0-0_
  6
CONTINUOUS
 62
    7
 10
1558.8798587519386
 20
3173.9867883298239
 11
1569.0580205565288
 21
3173.9867883298239
  0
LINE
  8
_0-0_
  6
CONTINUOUS
 62
    7
 10
1558.8798587519386
 20
3173.9867883298239
 11
1559.1123881309518
 21
3173.9867883298239
  0
ARC
  8
_0-0_
  6
CONTINUOUS
 62
    7
 10
1558.9061452083067
 20
3174.9771774390356
 40
1
 50
137.04344995177701
 51
256.24744823280281
  0
LINE
  8
_0-0_
  6
CONTINUOUS
 62
    7
 10
1558.1742745271788
 20
3175.6586209848306
 11
1558.271063143784
 21
3175.7528113297572
  0
ARC
  8
_0-0_
  6
CONTINUOUS
 62
    7
 10
1564.0144903231176
 20
3169.4867883298239
 40
8.5
 50
47.432993543848369
 51
132.50832417012012
  0
LINE
  8
_0-0_
  6
CONTINUOUS
 62
    7
 10
1569.2505777726028
 20
3164.972735476932
 11
1569.103987258793
 21
3164.9867883298239
  0
ARC
  8
_0-0_
  6
CONTINUOUS
 62
    7
 10
1569.1135909639502
 20
3163.982162605178
 40
1
 50
320.56910441059864
 51
82.126476859961144
  0
LINE
  8
_0-0_
  6
CONTINUOUS
 62
    7
 10
1569.8859821595388
 20
3163.3470155033365
 11
1569.7671295564003
 21
3163.229221562166
  0
LINE
  8
_0-0_
  6
CONTINUOUS
 62
    7
 10
1558.7160067020316
 20
3164.9622310087784
 11
1558.8481720726249
 21
3164.9867883298239
  0
LINE
  8
_0-0_
  6
CONTINUOUS
 62
    7
 10
1558.8481720726249
 20
3164.9867883298239
 11
1569.103987258793
 21
3164.9867883298239
  0
ARC
  8
_0-0_
  6
CONTINUOUS
 62
    7
 10
1558.9315456068703
 20
3163.9857357550773
 40
1
 50
102.44714557839281
 51
214.52280234623007
  0
LINE
  8
_0-0_
  6
CONTINUOUS
 62
    7
 10
1558.1076448996062
 20
3163.4190015805566
 11
1558.2042846876916
 21
3163.28263565004
  0
ARC
  8
_0-0_
  6
CONTINUOUS
 62
    7
 10
1564.0144903231176
 20
3169.4867883298239
 40
8.5
 50
226.87803778307403
 51
312.59261497276395
  0
LINE
  8
_0-0_
  6
DASHED1
 62
    7
 10
1552.3144903231173
 20
3134.8463174563226
 11
1552.3144903231173
 21
3131.8463174563226
  0
LINE
  8
_0-0_
  6
DASHED1
 62
    7
 10
1575.7144903231174
 20
3134.8463174563226
 11
1575.7144903231174
 21
3131.8463174563226
  0
LINE
  8
_0-0_
  6
DASHED2
 62
    7
 10
1553.2644903231176
 20
3131.8463174563226
 11
1553.2644903231176
 21
3121.8463174563226
  0
LINE
  8
_0-0_
  6
DASHED2
 62
    7
 10
1574.7644903231176
 20
3131.8463174563226
 11
1574.7644903231176
 21
3121.8463174563226
  0
LINE
  8
_0-0_
  6
CONTINUOUS
 62
    7
 10
1572.1417586443181
 20
3176.7111194416566
 11
1604.2305131786707
 21
3208.7998739760087
  0
LINE
  8
_0-0_
  6
CONTINUOUS
 62
    2
 10
1572.1417586443181
 20
3176.7111194416566
 11
1576.1417586443181
 21
3183.639322671932
  0
LINE
  8
_0-0_
  6
CONTINUOUS
 62
    2
 10
1572.1417586443181
 20
3176.7111194416566
 11
1579.0699618745937
 21
3180.7111194416566
  0
LINE
  8
_0-0_
  6
CONTINUOUS
 62
    2
 10
1547.0144903231176
 20
3212.6502915497504
 11
1554.7418969334299
 21
3214.7208439105707
  0
LINE
  8
_0-0_
  6
CONTINUOUS
 62
    2
 10
1547.0144903231176
 20
3212.6502915497504
 11
1554.7418969334299
 21
3210.57973918893
  0
LINE
  8
_0-0_
  6
CONTINUOUS
 62
    2
 10
1581.0144903231176
 20
3212.6502915497504
 11
1573.2870837128048
 21
3214.7208439105707
  0
LINE
  8
_0-0_
  6
CONTINUOUS
 62
    2
 10
1581.0144903231176
 20
3212.6502915497504
 11
1573.2870837128048
 21
3210.57973918893
  0
LINE
  8
_0-0_
  6
CONTINUOUS
 62
    2
 10
1547.0144903231176
 20
3220.6502915497504
 11
1547.0144903231176
 21
3193.1048371439529
  0
LINE
  8
_0-0_
  6
CONTINUOUS
 62
    2
 10
1581.0144903231176
 20
3220.6502915497504
 11
1581.0144903231176
 21
3193.1048371439529
  0
TEXT
  8
_0-0_
 62
    7
 10
1561.2881611415246
 20
3217.2108975777701
 40
4
 41
1
 50
0
  1
34Φ
  0
LINE
  8
_0-0_
  6
CONTINUOUS
 62
    2
 10
1547.0144903231176
 20
3212.6502915497504
 11
1555.0144903231176
 21
3212.6502915497504
  0
LINE
  8
_0-0_
  6
CONTINUOUS
 62
    2
 10
1581.0144903231176
 20
3212.6502915497504
 11
1573.0144903231176
 21
3212.6502915497504
  0
LINE
  8
_0-0_
  6
CONTINUOUS
 62
    7
 10
1547.0144903231176
 20
3212.6502915497504
 11
1581.0144903231176
 21
3212.6502915497504
  0
TEXT
  8
_0-0_
 62
    7
 10
1673.3702787131324
 20
2980.3432187918374
 40
4
 41
1
 50
0
  1
01-4
  0
TEXT
  8
_0-0_
 62
    7
 10
1647.3574200827234
 20
3000.4464973948525
 40
4
 41
1.3999999999999999
 50
0
  1
製作者　伊東
  0
TEXT
  8
_0-0_
 62
    7
 10
1606.0364804393366
 20
3002.2048352520178
 40
4
 41
1
 50
0
  1
製作年月日
  0
TEXT
  8
_0-0_
 62
    7
 10
1615.5315048680295
 20
2997.6331568233877
 40
4
 41
0.8
 50
0
  1
令和元年５月３０日
  0
LINE
  8
_0-0_
  6
CONTINUOUS
 62
    7
 10
1645.1777550665001
 20
2996.8977518428319
 11
1645.1777550665001
 21
3036.8977518428319
  0
TEXT
  8
_0-0_
 62
    7
 10
1613.2456656537147
 20
2988.3139661804112
 40
6.4000000000000004
 41
1.25
 50
0
  1
株式会社　アウス
  0
TEXT
  8
_0-0_
 62
    7
 10
1505.939409796573
 20
3241.3196454552772
 40
8
 41
1
 50
0
  1
Ｄ－３Ｖ－ＶＰ　２５Ａ
  0
ENDSEC
  0
EOF
