  0
SECTION
  2
HEADER
  9
$ACADVER
  1
AC1009
  9
$INSBASE
 10
0
 20
0
 30
0
  9
$EXTMIN
 10
0
 20
0
  9
$EXTMAX
 10
4752
 20
3360
  9
$LIMMIN
 10
0
 20
0
  9
$LIMMAX
 10
4752
 20
3360
  9
$LTSCALE
 40
8
  0
ENDSEC
  0
SECTION
  2
TABLES
  0
TABLE
  2
LTYPE
 70
     9
  0
LTYPE
  2
CONTINUOUS
 70
    64
  3
実線
 72
    65
 73
     0
 40
0.0
  0
LTYPE
  2
DASHED1
 70
    64
  3
--  --  --  --  --  --  --  --  
 72
    65
 73
     2
 40
2.5
 49
1.25
 49
-1.25
  0
LTYPE
  2
DASHED2
 70
    64
  3
----    ----    ----    ----    
 72
    65
 73
     2
 40
5.0
 49
2.5
 49
-2.5
  0
LTYPE
  2
DASHED3
 70
    64
  3
------  ------  ------  ------  
 72
    65
 73
     2
 40
5.0
 49
3.75
 49
-1.25
  0
LTYPE
  2
CENTER1
 70
    64
  3
----- - ----- - ----- - ----- - 
 72
    65
 73
     4
 40
10.0
 49
6.25
 49
-1.25
 49
1.25
 49
-1.25
  0
LTYPE
  2
CENTER2
 70
    64
  3
----------  --  ----------  --  
 72
    65
 73
     4
 40
20.0
 49
12.5
 49
-2.5
 49
2.5
 49
-2.5
  0
LTYPE
  2
PHANTOM1
 70
    64
  3
--- - - --- - - --- - - --- - - 
 72
    65
 73
     6
 40
10.0
 49
3.25
 49
-1.25
 49
1.25
 49
-1.25
 49
1.25
 49
-1.25
  0
LTYPE
  2
PHANTOM2
 70
    64
  3
--------  -  -  --------  -  -  
 72
    65
 73
     6
 40
20.0
 49
10.0
 49
-2.5
 49
1.25
 49
-2.5
 49
1.25
 49
-2.5
  0
LTYPE
  2
DOT
 70
    64
  3
-   -   -   -   -   -   -   -   
 72
    65
 73
     2
 40
2.5
 49
0.625
 49
-1.875
  0
LTYPE
  2
DUMMY
 70
    64
  3
ダミー
 72
    65
 73
     0
 40
0.0
  0
LTYPE
  2
RAND1
 70
    64
  3
ランダム線1
 72
    65
 73
     4
 40
10.0
 49
1.0
 49
-2.0
 49
3.0
 49
-4.0
  0
LTYPE
  2
RAND2
 70
    64
  3
ランダム線2
 72
    65
 73
     4
 40
14.0
 49
2.0
 49
-3.0
 49
4.0
 49
-5.0
  0
LTYPE
  2
RAND3
 70
    64
  3
ランダム線3
 72
    65
 73
     4
 40
18.0
 49
3.0
 49
-4.0
 49
5.0
 49
-6.0
  0
LTYPE
  2
RAND4
 70
    64
  3
ランダム線4
 72
    65
 73
     4
 40
22.0
 49
4.0
 49
-5.0
 49
6.0
 49
-7.0
  0
LTYPE
  2
RAND5
 70
    64
  3
ランダム線5
 72
    65
 73
     4
 40
26.0
 49
5.0
 49
-6.0
 49
7.0
 49
-8.0
  0
LTYPE
  2
LONG1
 70
    64
  3
----------  --  ----------  --  
 72
    65
 73
     4
 40
40.0
 49
32.5
 49
-2.5
 49
2.5
 49
-2.5
  0
LTYPE
  2
LONG2
 70
    64
  3
--------  -  -  --------  -  -  
 72
    65
 73
     6
 40
40.0
 49
30.0
 49
-2.5
 49
1.25
 49
-2.5
 49
1.25
 49
-2.5
  0
LTYPE
  2
LONG3
 70
    64
  3
+++++++++++++++..+++++++++++++++
 72
    65
 73
     2
 40
40.0
 49
37.5
 49
-2.5
  0
LTYPE
  2
LONG4
 70
    64
  3
+++++++++++++++..+++++++++++++++
 72
    65
 73
     2
 40
80.0
 49
75.0
 49
-5.0
  0
LTYPE
  2
LONG5
 70
    64
  3
----------  --  ----------  --  
 72
    65
 73
     4
 40
60.0
 49
37.5
 49
-7.5
 49
7.5
 49
-7.5
  0
LTYPE
  2
dashed
 70
   64
  3
-------   -------------   ------
 72
   65
 73
    2
 40
7.5
 49
6
 49
-1.5
  0
LTYPE
  2
dashed_spaced
 70
   64
  3
----        --------        ----
 72
   65
 73
    2
 40
12
 49
6
 49
-6
  0
LTYPE
  2
long_dashed_dotted
 70
   64
  3
------------- --- --------------
 72
   65
 73
    4
 40
15.25
 49
12
 49
-1.5
 49
0.25
 49
-1.5
  0
LTYPE
  2
long_dashed_double-dotted
 70
   64
  3
----------- --- --- ------------
 72
   65
 73
    6
 40
17
 49
12
 49
-1.5
 49
0.25
 49
-1.5
 49
0.25
 49
-1.5
  0
LTYPE
  2
long_dashed_triplicate-dotted
 70
   64
  3
--------- --- --- --- ----------
 72
   65
 73
    8
 40
18.75
 49
12
 49
-1.5
 49
0.25
 49
-1.5
 49
0.25
 49
-1.5
 49
0.25
 49
-1.5
  0
LTYPE
  2
dotted
 70
   64
  3
   -       -       -       -    
 72
   65
 73
    2
 40
1.75
 49
0.25
 49
-1.5
  0
LTYPE
  2
chain
 70
   64
  3
-------------- -- --------------
 72
   65
 73
    4
 40
18.5
 49
12
 49
-1.5
 49
3.5
 49
-1.5
  0
LTYPE
  2
chain_double_dash
 70
   64
  3
------------ -- -- -------------
 72
   65
 73
    6
 40
23.5
 49
12
 49
-1.5
 49
3.5
 49
-1.5
 49
3.5
 49
-1.5
  0
LTYPE
  2
dashed_dotted
 70
   64
  3
-----------     -     ----------
 72
   65
 73
    4
 40
9.25
 49
6
 49
-1.5
 49
0.25
 49
-1.5
  0
LTYPE
  2
double-dashed_dotted
 70
   64
  3
------   -----------   -   -----
 72
   65
 73
    6
 40
16.75
 49
6
 49
-1.5
 49
6
 49
-1.5
 49
0.25
 49
-1.5
  0
LTYPE
  2
dashed_double-dotted
 70
   64
  3
---------    -    -    ---------
 72
   65
 73
    6
 40
11
 49
6
 49
-1.5
 49
0.25
 49
-1.5
 49
0.25
 49
-1.5
  0
LTYPE
  2
double-dashed_double-dotted
 70
   64
  3
-----   ---------   -   -   ----
 72
   65
 73
    8
 40
18.5
 49
6
 49
-1.5
 49
6
 49
-1.5
 49
0.25
 49
-1.5
 49
0.25
 49
-1.5
  0
LTYPE
  2
dashed_triplicate-dotted
 70
   64
  3
-------    -    -    -    ------
 72
   65
 73
    8
 40
12.75
 49
6
 49
-1.5
 49
0.25
 49
-1.5
 49
0.25
 49
-1.5
 49
0.25
 49
-1.5
  0
LTYPE
  2
double-dashed_triplicate-dotted
 70
   64
  3
-----  ---------  -  -  -  -----
 72
   65
 73
   10
 40
20.25
 49
6
 49
-1.5
 49
6
 49
-1.5
 49
0.25
 49
-1.5
 49
0.25
 49
-1.5
 49
0.25
 49
-1.5
  0
LTYPE
  2
undefined
 70
   64
  3
--------------------------------
 72
   65
 73
    0
 40
0
  0
LTYPE
  2
_
 70
   64
  3
                                
 72
   65
 73
    0
 40
0
  0
LTYPE
  2
__18
 70
   64
  3
                                
 72
   65
 73
    0
 40
0
  0
LTYPE
  2
__19
 70
   64
  3
                                
 72
   65
 73
    0
 40
0
  0
LTYPE
  2
__20
 70
   64
  3
                                
 72
   65
 73
    0
 40
0
  0
LTYPE
  2
__21
 70
   64
  3
                                
 72
   65
 73
    0
 40
0
  0
LTYPE
  2
__22
 70
   64
  3
                                
 72
   65
 73
    0
 40
0
  0
LTYPE
  2
__23
 70
   64
  3
                                
 72
   65
 73
    0
 40
0
  0
LTYPE
  2
__24
 70
   64
  3
                                
 72
   65
 73
    0
 40
0
  0
LTYPE
  2
__25
 70
   64
  3
                                
 72
   65
 73
    0
 40
0
  0
LTYPE
  2
__26
 70
   64
  3
                                
 72
   65
 73
    0
 40
0
  0
LTYPE
  2
__27
 70
   64
  3
                                
 72
   65
 73
    0
 40
0
  0
LTYPE
  2
__28
 70
   64
  3
                                
 72
   65
 73
    0
 40
0
  0
LTYPE
  2
__29
 70
   64
  3
                                
 72
   65
 73
    0
 40
0
  0
LTYPE
  2
__30
 70
   64
  3
                                
 72
   65
 73
    0
 40
0
  0
LTYPE
  2
__31
 70
   64
  3
                                
 72
   65
 73
    0
 40
0
  0
LTYPE
  2
__32
 70
   64
  3
                                
 72
   65
 73
    0
 40
0
  0
ENDTAB
  0
TABLE
  2
STYLE
  5
3
100
AcDbSymbolTable
 70
     1
  0
STYLE
  5
10
100
AcDbSymbolTableRecord
100
AcDbTextStyleTableRecord
  2
STANDARD
 70
     0
 40
0.0
 41
1.0
 50
0.0
 71
     0
 42
0.2
  3
txt
  4
bigfont.shx
  0
STYLE
  5
26
100
AcDbSymbolTableRecord
100
AcDbTextStyleTableRecord
  2
TATEGAKI
 70
    68
 40
0.0
 41
1.0
 50
0.0
 71
     0
 42
1.0
  3
txt
  4
bigfont.shx
  0
ENDTAB
  0
TABLE
  2
LAYER
 70
    2
  0
LAYER
  2
_0-0_
 70
   64
 62
    7
  6
CONTINUOUS
  0
LAYER
  2
ADD_LINE
 70
   64
 62
    7
  6
CONTINUOUS
  0
ENDTAB
  0
ENDSEC
  0
SECTION
  2
BLOCKS
  0
ENDSEC
  0
SECTION
  2
ENTITIES
  0
CIRCLE
  8
_0-0_
  6
CONTINUOUS
 62
    7
 10
1564.0144903231176
 20
3169.4867883298239
 40
12
  0
LINE
  8
_0-0_
  6
CENTER1
 62
    7
 10
1564.0144903231176
 20
3137.1191910680263
 11
1564.0144903231176
 21
3119.4281325293405
  0
LINE
  8
_0-0_
  6
CONTINUOUS
 62
    7
 10
1605.1777550665001
 20
3006.8977518428319
 11
1685.1777550665001
 21
3006.8977518428319
  0
LINE
  8
_0-0_
  6
CONTINUOUS
 62
    7
 10
1605.1777550665001
 20
3016.8977518428319
 11
1685.1777550665001
 21
3016.8977518428319
  0
LINE
  8
_0-0_
  6
CONTINUOUS
 62
    7
 10
1605.1777550665001
 20
3026.8977518428319
 11
1685.1777550665001
 21
3026.8977518428319
  0
LINE
  8
_0-0_
  6
CONTINUOUS
 62
    7
 10
1495.1777550665001
 20
2986.8977518428319
 11
1685.1777550665001
 21
2986.8977518428319
  0
LINE
  8
_0-0_
  6
CONTINUOUS
 62
    7
 10
1605.1777550665001
 20
2996.8977518428319
 11
1685.1777550665001
 21
2996.8977518428319
  0
TEXT
  8
_0-0_
 62
    7
 10
1649.2236293968908
 20
2987.7753931011212
 40
8
 41
0.5
 50
0
  1
株式会社　アウス
  0
TEXT
  8
_0-0_
 62
    7
 10
1607.722378104414
 20
2999.8139240103892
 40
4
 41
1.3999999999999999
 50
0
  1
製作者　伊東
  0
TEXT
  8
_0-0_
 62
    7
 10
1612.7912332241058
 20
3009.9516342497732
 40
4
 41
2
 50
0
  1
サイズ
  0
TEXT
  8
_0-0_
 62
    7
 10
1647.6396121719872
 20
3020.0893444891567
 40
4
 41
1
 50
0
  1
防虫目皿（ＶＰ用）
  0
TEXT
  8
_0-0_
 62
    7
 10
1648.9068259519099
 20
3030.2270547285402
 40
4
 41
1
 50
0
  1
Ｄ－３ＢＶ－ＶＰ
  0
TEXT
  8
_0-0_
 62
    7
 10
1613.1080366690867
 20
3020.4061479341372
 40
4
 41
2
 50
0
  1
製品名
  0
TEXT
  8
_0-0_
 62
    7
 10
1608.3559849943754
 20
3029.5934478385789
 40
4
 41
2
 50
0
  1
製品番号
  0
LINE
  8
_0-0_
  6
CONTINUOUS
 62
    7
 10
1685.1777550665001
 20
3266.8977518428319
 11
1495.1777550665001
 21
3266.8977518428319
  0
LINE
  8
_0-0_
  6
CONTINUOUS
 62
    7
 10
1495.1777550665001
 20
3266.8977518428319
 11
1495.1777550665001
 21
2986.8977518428319
  0
LINE
  8
_0-0_
  6
CONTINUOUS
 62
    7
 10
1685.1777550665001
 20
2986.8977518428319
 11
1685.1777550665001
 21
3266.8977518428319
  0
TEXT
  8
_0-0_
 62
    7
 10
1505.0780619306547
 20
3253.25667999498
 40
8
 41
1
 50
0
  1
防虫目皿（ＶＰ専用）
  0
LINE
  8
_0-0_
  6
CONTINUOUS
 62
    7
 10
1605.1777550665001
 20
2986.8977518428319
 11
1605.1777550665001
 21
3036.8977518428319
  0
LINE
  8
_0-0_
  6
CONTINUOUS
 62
    7
 10
1645.1777550665001
 20
2986.8977518428319
 11
1645.1777550665001
 21
3036.8977518428319
  0
LINE
  8
_0-0_
  6
CONTINUOUS
 62
    7
 10
1503.9081846891968
 20
3036.8977518428319
 11
1503.9081846891968
 21
3015.8977518428319
  0
LINE
  8
_0-0_
  6
CONTINUOUS
 62
    7
 10
1503.9081846891968
 20
3029.8977518428319
 11
1578.9081846891968
 21
3029.8977518428319
  0
LINE
  8
_0-0_
  6
CONTINUOUS
 62
    7
 10
1503.9081846891968
 20
3022.8977518428319
 11
1578.9081846891968
 21
3022.8977518428319
  0
LINE
  8
_0-0_
  6
CONTINUOUS
 62
    7
 10
1503.9081846891968
 20
3015.8977518428319
 11
1578.9081846891968
 21
3015.8977518428319
  0
LINE
  8
_0-0_
  6
CONTINUOUS
 62
    7
 10
1513.9081846891968
 20
3036.8977518428319
 11
1513.9081846891968
 21
3015.8977518428319
  0
LINE
  8
_0-0_
  6
CONTINUOUS
 62
    7
 10
1528.9081846891968
 20
3036.8977518428319
 11
1528.9081846891968
 21
3015.8977518428319
  0
LINE
  8
_0-0_
  6
CONTINUOUS
 62
    7
 10
1548.9081846891968
 20
3036.8977518428319
 11
1548.9081846891968
 21
3015.8977518428319
  0
LINE
  8
_0-0_
  6
CONTINUOUS
 62
    7
 10
1578.9081846891968
 20
3036.8977518428319
 11
1578.9081846891968
 21
3015.8977518428319
  0
TEXT
  8
_0-0_
 62
    7
 10
1506.7514093353229
 20
3017.1010639763499
 40
4
 41
1
 50
0
  1
２
  0
TEXT
  8
_0-0_
 62
    7
 10
1516.6152950970222
 20
3017.2741146037479
 40
4
 41
1
 50
0
  1
アミ
  0
TEXT
  8
_0-0_
 62
    7
 10
1551.8310977725628
 20
3017.1010639763499
 40
4
 41
1
 50
0
  1
16メッシュ
  0
TEXT
  8
_0-0_
 62
    7
 10
1549.9275408711824
 20
3024.2826650133766
 40
4
 41
1
 50
0
  1
クロームメッキ
  0
TEXT
  8
_0-0_
 62
    7
 10
1553.6481293602444
 20
3031.0316394819074
 40
4
 41
1
 50
0
  1
備　　　考
  0
TEXT
  8
_0-0_
 62
    7
 10
1533.1416300135536
 20
3031.2912154230048
 40
4
 41
1
 50
0
  1
材　質
  0
TEXT
  8
_0-0_
 62
    7
 10
1529.8536680929872
 20
3024.1096143859781
 40
4
 41
1
 50
0
  1
ＣＡＣ203
  0
TEXT
  8
_0-0_
 62
    7
 10
1518.691902625801
 20
3024.3691903270756
 40
4
 41
1
 50
0
  1
枠
  0
TEXT
  8
_0-0_
 62
    7
 10
1506.7514093353229
 20
3024.5422409544735
 40
4
 41
1
 50
0
  1
１
  0
TEXT
  8
_0-0_
 62
    7
 10
1504.6748018065441
 20
3031.1181647956064
 40
4
 41
1
 50
0
  1
Ｎｏ
  0
TEXT
  8
_0-0_
 62
    7
 10
1515.3174153915356
 20
3031.3777407367043
 40
4
 41
1
 50
0
  1
部品名
  0
TEXT
  8
_0-0_
 62
    7
 10
1505.1074283750397
 20
3038.2132405189341
 40
4
 41
1
 50
0
  1
■部品構成
  0
LINE
  8
_0-0_
  6
CONTINUOUS
 62
    7
 10
1503.9081846891968
 20
3036.8977518428319
 11
1578.9081846891968
 21
3036.8977518428319
  0
LINE
  8
_0-0_
  6
CONTINUOUS
 62
    7
 10
1605.1777550665001
 20
3036.8977518428319
 11
1685.1777550665001
 21
3036.8977518428319
  0
TEXT
  8
_0-0_
 62
    7
 10
1504.2421752380487
 20
3007.756330096845
 40
4
 41
1
 50
0
  1
※20Ａ・25Ａ・30Ａはテーパー加工しています
  0
TEXT
  8
_0-0_
 62
    7
 10
1606.5331466627413
 20
2992.3638495745704
 40
4
 41
1
 50
0
  1
製作年月日
  0
TEXT
  8
_0-0_
 62
    7
 10
1504.466063531989
 20
3242.1263878183026
 40
8
 41
1
 50
0
  1
Ｄ－３ＢＶ－ＶＰ　25Ａ
  0
TEXT
  8
_0-0_
 62
    7
 10
1654.2477838821669
 20
3010.1276656026985
 40
4
 41
1.3999999999999999
 50
0
  1
２５Ａ
  0
LINE
  8
_0-0_
  6
CONTINUOUS
 62
    7
 10
1547.0144903231176
 20
3134.8463174563226
 11
1581.0144903231176
 21
3134.8463174563226
  0
LINE
  8
_0-0_
  6
CONTINUOUS
 62
    7
 10
1547.0144903231176
 20
3131.8463174563226
 11
1581.0144903231176
 21
3131.8463174563226
  0
LINE
  8
_0-0_
  6
CONTINUOUS
 62
    7
 10
1581.0144903231176
 20
3134.8463174563226
 11
1581.0144903231176
 21
3131.8463174563226
  0
LINE
  8
_0-0_
  6
CONTINUOUS
 62
    7
 10
1547.0144903231176
 20
3134.8463174563226
 11
1547.0144903231176
 21
3131.8463174563226
  0
LINE
  8
_0-0_
  6
CONTINUOUS
 62
    7
 10
1551.3144903231173
 20
3131.8463174563226
 11
1551.6644903231174
 21
3121.8463174563226
  0
LINE
  8
_0-0_
  6
CONTINUOUS
 62
    7
 10
1576.7144903231174
 20
3131.8463174563226
 11
1576.3844903231175
 21
3121.8463174563226
  0
LINE
  8
_0-0_
  6
CONTINUOUS
 62
    7
 10
1551.6644903231174
 20
3121.8463174563226
 11
1576.3844903231175
 21
3121.8463174563226
  0
LINE
  8
_0-0_
  6
CONTINUOUS
 62
    2
 10
1551.3144903231173
 20
3097.8858033528259
 11
1559.0418969334301
 21
3099.9563557136457
  0
LINE
  8
_0-0_
  6
CONTINUOUS
 62
    2
 10
1551.3144903231173
 20
3097.8858033528259
 11
1559.0418969334301
 21
3095.8152509920055
  0
LINE
  8
_0-0_
  6
CONTINUOUS
 62
    2
 10
1576.7144903231174
 20
3097.8858033528259
 11
1568.9870837128051
 21
3099.9563557136457
  0
LINE
  8
_0-0_
  6
CONTINUOUS
 62
    2
 10
1576.7144903231174
 20
3097.8858033528259
 11
1568.9870837128051
 21
3095.8152509920055
  0
LINE
  8
_0-0_
  6
CONTINUOUS
 62
    2
 10
1551.6644903231174
 20
3063.2315695789639
 11
1559.39189693343
 21
3065.3021219397842
  0
LINE
  8
_0-0_
  6
CONTINUOUS
 62
    2
 10
1551.6644903231174
 20
3063.2315695789639
 11
1559.39189693343
 21
3061.161017218144
  0
LINE
  8
_0-0_
  6
CONTINUOUS
 62
    2
 10
1576.3844903231175
 20
3063.2315695789639
 11
1568.6570837128049
 21
3065.3021219397842
  0
LINE
  8
_0-0_
  6
CONTINUOUS
 62
    2
 10
1576.3844903231175
 20
3063.2315695789639
 11
1568.6570837128049
 21
3061.161017218144
  0
LINE
  8
_0-0_
  6
CONTINUOUS
 62
    2
 10
1551.6644903231174
 20
3055.2315695789639
 11
1551.6644903231174
 21
3116.7196260560113
  0
LINE
  8
_0-0_
  6
CONTINUOUS
 62
    2
 10
1576.3844903231175
 20
3055.2315695789639
 11
1576.3844903231175
 21
3116.7196260560113
  0
TEXT
  8
_0-0_
 62
    7
 10
1559.3936027925829
 20
3101.9614010989162
 40
4
 41
1
 50
0
  1
25.4
  0
TEXT
  8
_0-0_
 62
    7
 10
1559.7172004460256
 20
3068.0915133719354
 40
4
 41
1
 50
0
  1
24.7
  0
LINE
  8
_0-0_
  6
CONTINUOUS
 62
    7
 10
1551.6644903231174
 20
3097.9795855701768
 11
1576.3844903231175
 21
3097.9795855701768
  0
LINE
  8
_0-0_
  6
CONTINUOUS
 62
    7
 10
1551.6644903231174
 20
3063.2315695789639
 11
1576.3844903231175
 21
3063.2315695789639
  0
TEXT
  8
_0-0_
 62
    7
 10
1585.986823709349
 20
3100.975443320362
 40
4
 41
1
 50
0
  1
差し口　根本側
  0
TEXT
  8
_0-0_
 62
    7
 10
1587.2636035664691
 20
3065.0837428924324
 40
4
 41
1
 50
0
  1
差し口先側
  0
LINE
  8
_0-0_
  6
CONTINUOUS
 62
    2
 10
1618.0018614872022
 20
3134.8463174563226
 11
1615.9313091263821
 21
3142.5737240666349
  0
LINE
  8
_0-0_
  6
CONTINUOUS
 62
    2
 10
1618.0018614872022
 20
3134.8463174563226
 11
1620.0724138480223
 21
3142.5737240666349
  0
LINE
  8
_0-0_
  6
CONTINUOUS
 62
    2
 10
1618.0018614872022
 20
3131.8463174563226
 11
1615.9313091263821
 21
3124.1189108460103
  0
LINE
  8
_0-0_
  6
CONTINUOUS
 62
    2
 10
1618.0018614872022
 20
3131.8463174563226
 11
1620.0724138480223
 21
3124.1189108460103
  0
LINE
  8
_0-0_
  6
CONTINUOUS
 62
    2
 10
1655.3686624530062
 20
3134.8463174563226
 11
1653.2981100921861
 21
3142.5737240666349
  0
LINE
  8
_0-0_
  6
CONTINUOUS
 62
    2
 10
1655.3686624530062
 20
3134.8463174563226
 11
1657.4392148138263
 21
3142.5737240666349
  0
LINE
  8
_0-0_
  6
CONTINUOUS
 62
    2
 10
1655.3686624530062
 20
3121.8463174563226
 11
1653.2981100921861
 21
3114.1189108460103
  0
LINE
  8
_0-0_
  6
CONTINUOUS
 62
    2
 10
1655.3686624530062
 20
3121.8463174563226
 11
1657.4392148138263
 21
3114.1189108460103
  0
TEXT
  8
_0-0_
 62
    7
 10
1612.3295341118046
 20
3132.4081693871622
 40
4
 41
1
 50
90
  1
3
  0
LINE
  8
_0-0_
  6
CONTINUOUS
 62
    7
 10
1618.0018614872022
 20
3134.8463174563226
 11
1618.0018614872022
 21
3131.8463174563226
  0
TEXT
  8
_0-0_
 62
    7
 10
1653.1891173416825
 20
3126.4687559008612
 40
4
 41
1
 50
90
  1
13
  0
LINE
  8
_0-0_
  6
CONTINUOUS
 62
    7
 10
1655.3686624530062
 20
3134.8463174563226
 11
1655.3686624530062
 21
3121.8463174563226
  0
LINE
  8
_0-0_
  6
CONTINUOUS
 62
    2
 10
1661.7848514324091
 20
3134.8463174563226
 11
1589.341871583777
 21
3134.8463174563226
  0
LINE
  8
_0-0_
  6
CONTINUOUS
 62
    2
 10
1661.7848514324091
 20
3134.8463174563226
 11
1589.2069910183063
 21
3134.8463174563226
  0
CIRCLE
  8
_0-0_
  6
CONTINUOUS
 62
    7
 10
1564.0144903231176
 20
3169.4867883298239
 40
17
  0
LINE
  8
_0-0_
  6
CONTINUOUS
 62
    7
 10
1573.7644903231176
 20
3176.4823226196404
 11
1573.7644903231176
 21
3162.4912540400073
  0
LINE
  8
_0-0_
  6
CONTINUOUS
 62
    7
 10
1572.2644903231176
 20
3178.2010008587904
 11
1572.2644903231176
 21
3160.7725758008573
  0
LINE
  8
_0-0_
  6
CONTINUOUS
 62
    7
 10
1570.7644903231176
 20
3179.4083557463164
 11
1570.7644903231176
 21
3159.7367883298239
  0
LINE
  8
_0-0_
  6
CONTINUOUS
 62
    7
 10
1575.2644903231176
 20
3173.6626116019461
 11
1575.2644903231176
 21
3165.3109650577017
  0
LINE
  8
_0-0_
  6
CONTINUOUS
 62
    7
 10
1559.8386670509949
 20
3158.2367883298239
 11
1568.19031359524
 21
3158.2367883298239
  0
LINE
  8
_0-0_
  6
CONTINUOUS
 62
    7
 10
1557.0189560333008
 20
3159.7367883298239
 11
1571.0100246129341
 21
3159.7367883298239
  0
LINE
  8
_0-0_
  6
CONTINUOUS
 62
    7
 10
1555.3002777941508
 20
3161.2367883298239
 11
1572.7287028520841
 21
3161.2367883298239
  0
LINE
  8
_0-0_
  6
CONTINUOUS
 62
    7
 10
1554.0929229066253
 20
3162.7367883298239
 11
1573.7644903231176
 21
3162.7367883298239
  0
LINE
  8
_0-0_
  6
CONTINUOUS
 62
    7
 10
1552.2273150889912
 20
3167.2367883298239
 11
1575.8016655572437
 21
3167.2367883298239
  0
LINE
  8
_0-0_
  6
CONTINUOUS
 62
    7
 10
1552.6154772079394
 20
3165.7367883298239
 11
1575.4135034382955
 21
3165.7367883298239
  0
LINE
  8
_0-0_
  6
CONTINUOUS
 62
    7
 10
1553.2238693956638
 20
3164.2367883298239
 11
1574.8051112505709
 21
3164.2367883298239
  0
LINE
  8
_0-0_
  6
CONTINUOUS
 62
    7
 10
1552.037950756114
 20
3168.7367883298239
 11
1575.9910298901209
 21
3168.7367883298239
  0
LINE
  8
_0-0_
  6
CONTINUOUS
 62
    7
 10
1552.037950756114
 20
3170.2367883298239
 11
1575.9910298901209
 21
3170.2367883298239
  0
LINE
  8
_0-0_
  6
CONTINUOUS
 62
    7
 10
1552.2273150889912
 20
3171.7367883298239
 11
1575.8016655572437
 21
3171.7367883298239
  0
LINE
  8
_0-0_
  6
CONTINUOUS
 62
    7
 10
1552.6154772079394
 20
3173.2367883298239
 11
1575.4135034382955
 21
3173.2367883298239
  0
LINE
  8
_0-0_
  6
CONTINUOUS
 62
    7
 10
1553.2238693956638
 20
3174.7367883298239
 11
1574.8051112505709
 21
3174.7367883298239
  0
LINE
  8
_0-0_
  6
CONTINUOUS
 62
    7
 10
1554.0929229066253
 20
3176.2367883298239
 11
1573.9360577396096
 21
3176.2367883298239
  0
LINE
  8
_0-0_
  6
CONTINUOUS
 62
    7
 10
1555.3002777941508
 20
3177.7367883298239
 11
1572.7287028520841
 21
3177.7367883298239
  0
LINE
  8
_0-0_
  6
CONTINUOUS
 62
    7
 10
1555.7644903231176
 20
3178.2010008587904
 11
1555.7644903231176
 21
3160.7725758008573
  0
LINE
  8
_0-0_
  6
CONTINUOUS
 62
    7
 10
1554.2644903231176
 20
3176.4823226196404
 11
1554.2644903231176
 21
3162.4912540400073
  0
LINE
  8
_0-0_
  6
CONTINUOUS
 62
    7
 10
1557.0189560333008
 20
3179.2367883298239
 11
1571.0100246129341
 21
3179.2367883298239
  0
LINE
  8
_0-0_
  6
CONTINUOUS
 62
    7
 10
1557.2644903231176
 20
3179.4083557463164
 11
1557.2644903231176
 21
3159.5652209133314
  0
LINE
  8
_0-0_
  6
CONTINUOUS
 62
    7
 10
1558.7644903231176
 20
3180.2774092572772
 11
1558.7644903231176
 21
3158.6961674023705
  0
LINE
  8
_0-0_
  6
CONTINUOUS
 62
    7
 10
1560.2644903231176
 20
3180.8858014450016
 11
1560.2644903231176
 21
3158.0877752146462
  0
LINE
  8
_0-0_
  6
CONTINUOUS
 62
    7
 10
1561.7644903231176
 20
3181.27396356395
 11
1561.7644903231176
 21
3157.6996130956977
  0
LINE
  8
_0-0_
  6
CONTINUOUS
 62
    7
 10
1563.2644903231176
 20
3181.4633278968276
 11
1563.2644903231176
 21
3157.5102487628201
  0
LINE
  8
_0-0_
  6
CONTINUOUS
 62
    7
 10
1564.7644903231176
 20
3181.4633278968276
 11
1564.7644903231176
 21
3157.5102487628201
  0
LINE
  8
_0-0_
  6
CONTINUOUS
 62
    7
 10
1566.2644903231176
 20
3181.27396356395
 11
1566.2644903231176
 21
3157.6996130956977
  0
LINE
  8
_0-0_
  6
CONTINUOUS
 62
    7
 10
1567.7644903231176
 20
3180.8858014450016
 11
1567.7644903231176
 21
3158.0877752146462
  0
LINE
  8
_0-0_
  6
CONTINUOUS
 62
    7
 10
1559.8386670509949
 20
3180.7367883298239
 11
1568.2261890206439
 21
3180.7367883298239
  0
LINE
  8
_0-0_
  6
CONTINUOUS
 62
    7
 10
1569.2644903231176
 20
3180.2774092572772
 11
1569.2644903231176
 21
3158.6961674023705
  0
LINE
  8
_0-0_
  6
CONTINUOUS
 62
    7
 10
1552.7644903231176
 20
3173.6626116019461
 11
1552.7644903231176
 21
3165.3109650577017
  0
LINE
  8
_0-0_
  6
CONTINUOUS
 62
    2
 10
1547.0144903231176
 20
3213.0182056952544
 11
1554.7418969334299
 21
3215.0887580560748
  0
LINE
  8
_0-0_
  6
CONTINUOUS
 62
    2
 10
1547.0144903231176
 20
3213.0182056952544
 11
1554.7418969334299
 21
3210.9476533344346
  0
LINE
  8
_0-0_
  6
CONTINUOUS
 62
    2
 10
1581.0144903231176
 20
3213.0182056952544
 11
1573.2870837128048
 21
3215.0887580560748
  0
LINE
  8
_0-0_
  6
CONTINUOUS
 62
    2
 10
1581.0144903231176
 20
3213.0182056952544
 11
1573.2870837128048
 21
3210.9476533344346
  0
LINE
  8
_0-0_
  6
CONTINUOUS
 62
    2
 10
1547.0144903231176
 20
3221.0182056952544
 11
1547.0144903231176
 21
3194.5138865552944
  0
LINE
  8
_0-0_
  6
CONTINUOUS
 62
    2
 10
1581.0144903231176
 20
3221.0182056952544
 11
1581.0144903231176
 21
3194.5138865552944
  0
LINE
  8
_0-0_
  6
CONTINUOUS
 62
    7
 10
1547.0144903231176
 20
3213.0182056952544
 11
1581.0144903231176
 21
3213.0182056952544
  0
TEXT
  8
_0-0_
 62
    7
 10
1615.7037651926787
 20
2987.476541367108
 40
4
 41
0.8
 50
0
  1
令和元年５月２８日
  0
TEXT
  8
_0-0_
 62
    7
 10
1560.0664827993821
 20
3217.5631240019557
 40
4
 41
1
 50
0
  1
34Φ
  0
LINE
  8
_0-0_
  6
CONTINUOUS
 62
    2
 10
1576.7144903231174
 20
3089.8858033528259
 11
1576.7144903231174
 21
3120.5805783008304
  0
LINE
  8
_0-0_
  6
CONTINUOUS
 62
    2
 10
1551.3144903231173
 20
3089.8858033528259
 11
1551.3144903231173
 21
3120.5805783008304
  0
TEXT
  8
_0-0_
 62
    7
 10
1529.8891250954521
 20
3017.1639550309924
 40
4
 41
1
 50
0
  1
ＳＵＳ304
  0
LINE
  8
_0-0_
  6
CENTER1
 62
    7
 10
1564.0144903231176
 20
3191.4867883298239
 11
1564.0144903231176
 21
3147.4867883298239
  0
LINE
  8
_0-0_
  6
CENTER1
 62
    7
 10
1542.0144903231176
 20
3169.4867883298239
 11
1586.0144903231176
 21
3169.4867883298239
  0
LINE
  8
_0-0_
  6
CONTINUOUS
 62
    2
 10
1660.6936501791224
 20
3134.8463174563226
 11
1587.9642401320543
 21
3134.8463174563226
  0
LINE
  8
_0-0_
  6
CONTINUOUS
 62
    2
 10
1625.3885437282722
 20
3134.8463174563226
 11
1588.9936342094466
 21
3134.8463174563226
  0
LINE
  8
_0-0_
  6
CONTINUOUS
 62
    2
 10
1628.5904912523599
 20
3134.8463174563226
 11
1588.6937874504342
 21
3134.8463174563226
  0
LINE
  8
_0-0_
  6
CONTINUOUS
 62
    2
 10
1626.0018614872022
 20
3131.8463174563226
 11
1588.6937874504342
 21
3131.8463174563226
  0
LINE
  8
_0-0_
  6
CONTINUOUS
 62
    2
 10
1660.6936501791224
 20
3121.8463174563226
 11
1588.6937874504342
 21
3121.8463174563226
  0
LINE
  8
_0-0_
  6
CONTINUOUS
 62
    2
 10
1626.0018614872022
 20
3134.8463174563226
 11
1588.6937874504342
 21
3134.8463174563226
  0
LINE
  8
_0-0_
  6
CONTINUOUS
 62
    7
 10
1578.0769294009588
 20
3137.0865984882785
 11
1608.2652710725249
 21
3167.2749401598444
  0
LINE
  8
_0-0_
  6
CONTINUOUS
 62
    2
 10
1578.0769294009588
 20
3137.0865984882785
 11
1582.0769294009588
 21
3144.0148017185538
  0
LINE
  8
_0-0_
  6
CONTINUOUS
 62
    2
 10
1578.0769294009588
 20
3137.0865984882785
 11
1585.0051326312341
 21
3141.0865984882785
  0
LINE
  8
_0-0_
  6
CONTINUOUS
 62
    7
 10
1575.1410063964731
 20
3179.641635225229
 11
1592.0780018121088
 21
3196.5786306408645
  0
LINE
  8
_0-0_
  6
CONTINUOUS
 62
    2
 10
1575.1410063964731
 20
3179.641635225229
 11
1579.1410063964731
 21
3186.5698384555044
  0
LINE
  8
_0-0_
  6
CONTINUOUS
 62
    2
 10
1575.1410063964731
 20
3179.641635225229
 11
1582.0692096267485
 21
3183.641635225229
  0
LINE
  8
_0-0_
  6
CONTINUOUS
 62
    7
 10
1592.0780018121088
 20
3196.5786306408645
 11
1635.7267630454439
 21
3196.5786306408645
  0
LINE
  8
_0-0_
  6
CONTINUOUS
 62
    7
 10
1608.2652710725249
 20
3167.2749401598444
 11
1635.7267630454439
 21
3167.2749401598444
  0
TEXT
  8
_0-0_
 62
    7
 10
1638.4904772495324
 20
3165.2463179922725
 40
4
 41
1
 50
0
  1
①
  0
TEXT
  8
_0-0_
 62
    7
 10
1638.4904772495324
 20
3194.5454473713116
 40
4
 41
1
 50
0
  1
②
  0
LINE
  8
_0-0_
  6
DASHED2
 62
    7
 10
1547.0144903231176
 20
3133.8463174563226
 11
1581.0144903231176
 21
3133.8463174563226
  0
ENDSEC
  0
EOF
